  0
SECTION
  2
HEADER
  9
$ACADVER
  1
AC1009
  9
$INSBASE
 10
0
 20
0
 30
0
  9
$EXTMIN
 10
0
 20
0
  9
$EXTMAX
 10
5940
 20
4200
  9
$LIMMIN
 10
0
 20
0
  9
$LIMMAX
 10
5940
 20
4200
  9
$LTSCALE
 40
20
  0
ENDSEC
  0
SECTION
  2
TABLES
  0
TABLE
  2
LTYPE
 70
     9
  0
LTYPE
  2
CONTINUOUS
 70
    64
  3
実線
 72
    65
 73
     0
 40
0.0
  0
LTYPE
  2
DASHED1
 70
    64
  3
--  --  --  --  --  --  --  --  
 72
    65
 73
     2
 40
2.5
 49
1.25
 49
-1.25
  0
LTYPE
  2
DASHED2
 70
    64
  3
----    ----    ----    ----    
 72
    65
 73
     2
 40
5.0
 49
2.5
 49
-2.5
  0
LTYPE
  2
DASHED3
 70
    64
  3
------  ------  ------  ------  
 72
    65
 73
     2
 40
5.0
 49
3.75
 49
-1.25
  0
LTYPE
  2
CENTER1
 70
    64
  3
----- - ----- - ----- - ----- - 
 72
    65
 73
     4
 40
10.0
 49
6.25
 49
-1.25
 49
1.25
 49
-1.25
  0
LTYPE
  2
CENTER2
 70
    64
  3
----------  --  ----------  --  
 72
    65
 73
     4
 40
20.0
 49
12.5
 49
-2.5
 49
2.5
 49
-2.5
  0
LTYPE
  2
PHANTOM1
 70
    64
  3
--- - - --- - - --- - - --- - - 
 72
    65
 73
     6
 40
10.0
 49
3.25
 49
-1.25
 49
1.25
 49
-1.25
 49
1.25
 49
-1.25
  0
LTYPE
  2
PHANTOM2
 70
    64
  3
--------  -  -  --------  -  -  
 72
    65
 73
     6
 40
20.0
 49
10.0
 49
-2.5
 49
1.25
 49
-2.5
 49
1.25
 49
-2.5
  0
LTYPE
  2
DOT
 70
    64
  3
-   -   -   -   -   -   -   -   
 72
    65
 73
     2
 40
2.5
 49
0.625
 49
-1.875
  0
LTYPE
  2
DUMMY
 70
    64
  3
ダミー
 72
    65
 73
     0
 40
0.0
  0
LTYPE
  2
RAND1
 70
    64
  3
ランダム線1
 72
    65
 73
     4
 40
10.0
 49
1.0
 49
-2.0
 49
3.0
 49
-4.0
  0
LTYPE
  2
RAND2
 70
    64
  3
ランダム線2
 72
    65
 73
     4
 40
14.0
 49
2.0
 49
-3.0
 49
4.0
 49
-5.0
  0
LTYPE
  2
RAND3
 70
    64
  3
ランダム線3
 72
    65
 73
     4
 40
18.0
 49
3.0
 49
-4.0
 49
5.0
 49
-6.0
  0
LTYPE
  2
RAND4
 70
    64
  3
ランダム線4
 72
    65
 73
     4
 40
22.0
 49
4.0
 49
-5.0
 49
6.0
 49
-7.0
  0
LTYPE
  2
RAND5
 70
    64
  3
ランダム線5
 72
    65
 73
     4
 40
26.0
 49
5.0
 49
-6.0
 49
7.0
 49
-8.0
  0
LTYPE
  2
LONG1
 70
    64
  3
----------  --  ----------  --  
 72
    65
 73
     4
 40
40.0
 49
32.5
 49
-2.5
 49
2.5
 49
-2.5
  0
LTYPE
  2
LONG2
 70
    64
  3
--------  -  -  --------  -  -  
 72
    65
 73
     6
 40
40.0
 49
30.0
 49
-2.5
 49
1.25
 49
-2.5
 49
1.25
 49
-2.5
  0
LTYPE
  2
LONG3
 70
    64
  3
+++++++++++++++..+++++++++++++++
 72
    65
 73
     2
 40
40.0
 49
37.5
 49
-2.5
  0
LTYPE
  2
LONG4
 70
    64
  3
+++++++++++++++..+++++++++++++++
 72
    65
 73
     2
 40
80.0
 49
75.0
 49
-5.0
  0
LTYPE
  2
LONG5
 70
    64
  3
----------  --  ----------  --  
 72
    65
 73
     4
 40
60.0
 49
37.5
 49
-7.5
 49
7.5
 49
-7.5
  0
LTYPE
  2
dashed
 70
   64
  3
-------   -------------   ------
 72
   65
 73
    2
 40
7.5
 49
6
 49
-1.5
  0
LTYPE
  2
dashed_spaced
 70
   64
  3
----        --------        ----
 72
   65
 73
    2
 40
12
 49
6
 49
-6
  0
LTYPE
  2
long_dashed_dotted
 70
   64
  3
------------- --- --------------
 72
   65
 73
    4
 40
15.25
 49
12
 49
-1.5
 49
0.25
 49
-1.5
  0
LTYPE
  2
long_dashed_double-dotted
 70
   64
  3
----------- --- --- ------------
 72
   65
 73
    6
 40
17
 49
12
 49
-1.5
 49
0.25
 49
-1.5
 49
0.25
 49
-1.5
  0
LTYPE
  2
long_dashed_triplicate-dotted
 70
   64
  3
--------- --- --- --- ----------
 72
   65
 73
    8
 40
18.75
 49
12
 49
-1.5
 49
0.25
 49
-1.5
 49
0.25
 49
-1.5
 49
0.25
 49
-1.5
  0
LTYPE
  2
dotted
 70
   64
  3
   -       -       -       -    
 72
   65
 73
    2
 40
1.75
 49
0.25
 49
-1.5
  0
LTYPE
  2
chain
 70
   64
  3
-------------- -- --------------
 72
   65
 73
    4
 40
18.5
 49
12
 49
-1.5
 49
3.5
 49
-1.5
  0
LTYPE
  2
chain_double_dash
 70
   64
  3
------------ -- -- -------------
 72
   65
 73
    6
 40
23.5
 49
12
 49
-1.5
 49
3.5
 49
-1.5
 49
3.5
 49
-1.5
  0
LTYPE
  2
dashed_dotted
 70
   64
  3
-----------     -     ----------
 72
   65
 73
    4
 40
9.25
 49
6
 49
-1.5
 49
0.25
 49
-1.5
  0
LTYPE
  2
double-dashed_dotted
 70
   64
  3
------   -----------   -   -----
 72
   65
 73
    6
 40
16.75
 49
6
 49
-1.5
 49
6
 49
-1.5
 49
0.25
 49
-1.5
  0
LTYPE
  2
dashed_double-dotted
 70
   64
  3
---------    -    -    ---------
 72
   65
 73
    6
 40
11
 49
6
 49
-1.5
 49
0.25
 49
-1.5
 49
0.25
 49
-1.5
  0
LTYPE
  2
double-dashed_double-dotted
 70
   64
  3
-----   ---------   -   -   ----
 72
   65
 73
    8
 40
18.5
 49
6
 49
-1.5
 49
6
 49
-1.5
 49
0.25
 49
-1.5
 49
0.25
 49
-1.5
  0
LTYPE
  2
dashed_triplicate-dotted
 70
   64
  3
-------    -    -    -    ------
 72
   65
 73
    8
 40
12.75
 49
6
 49
-1.5
 49
0.25
 49
-1.5
 49
0.25
 49
-1.5
 49
0.25
 49
-1.5
  0
LTYPE
  2
double-dashed_triplicate-dotted
 70
   64
  3
-----  ---------  -  -  -  -----
 72
   65
 73
   10
 40
20.25
 49
6
 49
-1.5
 49
6
 49
-1.5
 49
0.25
 49
-1.5
 49
0.25
 49
-1.5
 49
0.25
 49
-1.5
  0
LTYPE
  2
undefined
 70
   64
  3
--------------------------------
 72
   65
 73
    0
 40
0
  0
LTYPE
  2
_
 70
   64
  3
                                
 72
   65
 73
    0
 40
0
  0
LTYPE
  2
__18
 70
   64
  3
                                
 72
   65
 73
    0
 40
0
  0
LTYPE
  2
__19
 70
   64
  3
                                
 72
   65
 73
    0
 40
0
  0
LTYPE
  2
__20
 70
   64
  3
                                
 72
   65
 73
    0
 40
0
  0
LTYPE
  2
__21
 70
   64
  3
                                
 72
   65
 73
    0
 40
0
  0
LTYPE
  2
__22
 70
   64
  3
                                
 72
   65
 73
    0
 40
0
  0
LTYPE
  2
__23
 70
   64
  3
                                
 72
   65
 73
    0
 40
0
  0
LTYPE
  2
__24
 70
   64
  3
                                
 72
   65
 73
    0
 40
0
  0
LTYPE
  2
__25
 70
   64
  3
                                
 72
   65
 73
    0
 40
0
  0
LTYPE
  2
__26
 70
   64
  3
                                
 72
   65
 73
    0
 40
0
  0
LTYPE
  2
__27
 70
   64
  3
                                
 72
   65
 73
    0
 40
0
  0
LTYPE
  2
__28
 70
   64
  3
                                
 72
   65
 73
    0
 40
0
  0
LTYPE
  2
__29
 70
   64
  3
                                
 72
   65
 73
    0
 40
0
  0
LTYPE
  2
__30
 70
   64
  3
                                
 72
   65
 73
    0
 40
0
  0
LTYPE
  2
__31
 70
   64
  3
                                
 72
   65
 73
    0
 40
0
  0
LTYPE
  2
__32
 70
   64
  3
                                
 72
   65
 73
    0
 40
0
  0
ENDTAB
  0
TABLE
  2
STYLE
  5
3
100
AcDbSymbolTable
 70
     1
  0
STYLE
  5
10
100
AcDbSymbolTableRecord
100
AcDbTextStyleTableRecord
  2
STANDARD
 70
     0
 40
0.0
 41
1.0
 50
0.0
 71
     0
 42
0.2
  3
txt
  4
bigfont.shx
  0
STYLE
  5
26
100
AcDbSymbolTableRecord
100
AcDbTextStyleTableRecord
  2
TATEGAKI
 70
    68
 40
0.0
 41
1.0
 50
0.0
 71
     0
 42
1.0
  3
txt
  4
bigfont.shx
  0
ENDTAB
  0
TABLE
  2
LAYER
 70
    6
  0
LAYER
  2
_0-0_
 70
   64
 62
    7
  6
CONTINUOUS
  0
LAYER
  2
_0-1_
 70
   64
 62
    7
  6
CONTINUOUS
  0
LAYER
  2
_0-2_
 70
   64
 62
    7
  6
CONTINUOUS
  0
LAYER
  2
_0-3_
 70
   64
 62
    7
  6
CONTINUOUS
  0
LAYER
  2
_0-4_
 70
   64
 62
    7
  6
CONTINUOUS
  0
LAYER
  2
ADD_LINE
 70
   64
 62
    7
  6
CONTINUOUS
  0
ENDTAB
  0
ENDSEC
  0
SECTION
  2
BLOCKS
  0
ENDSEC
  0
SECTION
  2
ENTITIES
  0
LINE
  8
_0-0_
  6
CONTINUOUS
 62
    4
 10
190.00499999999988
 20
190.38000000000011
 11
5749.9949999999999
 21
190.38000000000011
  0
LINE
  8
_0-0_
  6
CONTINUOUS
 62
    4
 10
190.00499999999988
 20
190.38000000000011
 11
190.00499999999988
 21
4009.6199999999999
  0
LINE
  8
_0-0_
  6
CONTINUOUS
 62
    4
 10
5749.9949999999999
 20
190.38000000000011
 11
5749.9949999999999
 21
4009.6199999999999
  0
LINE
  8
_0-0_
  6
CONTINUOUS
 62
    4
 10
190.00499999999988
 20
4009.6199999999999
 11
5749.9949999999999
 21
4009.6199999999999
  0
POINT
  8
_0-1_
 62
    7
 10
5879.9933333333329
 20
4139.6199999999999
  0
LINE
  8
_0-2_
  6
CONTINUOUS
 62
    3
 10
1803.4496091441906
 20
2715.3338905451428
 11
1803.4496091441906
 21
2183.3338905451428
  0
LINE
  8
_0-2_
  6
CONTINUOUS
 62
    3
 10
1803.4496091441906
 20
2183.3338905451428
 11
1206.4496091441906
 21
2183.3338905451428
  0
LINE
  8
_0-2_
  6
CONTINUOUS
 62
    3
 10
1206.4496091441906
 20
2183.3338905451428
 11
1206.4496091441906
 21
2715.3338905451428
  0
LINE
  8
_0-2_
  6
CONTINUOUS
 62
    3
 10
1206.4496091441906
 20
2715.3338905451428
 11
1803.4496091441906
 21
2715.3338905451428
  0
LINE
  8
_0-2_
  6
CONTINUOUS
 62
    3
 10
1504.9496091441906
 20
2700.6199711726722
 11
1803.4496091441906
 21
2700.6199711726722
  0
LINE
  8
_0-2_
  6
CONTINUOUS
 62
    3
 10
3109.2900447968968
 20
1756.5794580313295
 11
3706.2900447968968
 21
1756.5794580313295
  0
LINE
  8
_0-2_
  6
CONTINUOUS
 62
    3
 10
3109.2900447968968
 20
1756.5794580313295
 11
3109.2900447968968
 21
2566.5794580313313
  0
LINE
  8
_0-2_
  6
CONTINUOUS
 62
    3
 10
3706.2900447968968
 20
1756.5794580313295
 11
3706.2900447968968
 21
2566.5794580313313
  0
LINE
  8
_0-2_
  6
CONTINUOUS
 62
    3
 10
3109.2900447968968
 20
2566.5794580313313
 11
3706.2900447968968
 21
2566.5794580313313
  0
LINE
  8
_0-2_
  6
CONTINUOUS
 62
    3
 10
3109.2900447968968
 20
1757.5794580313295
 11
3706.2900447968968
 21
1757.5794580313295
  0
LINE
  8
_0-2_
  6
CONTINUOUS
 62
    3
 10
3109.2900447968968
 20
1757.5794580313295
 11
3109.2900447968968
 21
1851.5794580313313
  0
LINE
  8
_0-2_
  6
CONTINUOUS
 62
    3
 10
3706.2900447968968
 20
1757.5794580313295
 11
3706.2900447968968
 21
1851.5794580313313
  0
LINE
  8
_0-2_
  6
CONTINUOUS
 62
    3
 10
3109.2900447968968
 20
1851.5794580313313
 11
3706.2900447968968
 21
1851.5794580313313
  0
LINE
  8
_0-2_
  6
CONTINUOUS
 62
    3
 10
4577.9317892696099
 20
1851.0794580313295
 11
4597.9317892696099
 21
1851.0794580313295
  0
LINE
  8
_0-2_
  6
CONTINUOUS
 62
    3
 10
4577.9317892696099
 20
1851.0794580313295
 11
4577.9317892696099
 21
2567.0794580313295
  0
LINE
  8
_0-2_
  6
CONTINUOUS
 62
    3
 10
4597.9317892696099
 20
1851.0794580313295
 11
4597.9317892696099
 21
2567.0794580313295
  0
LINE
  8
_0-2_
  6
CONTINUOUS
 62
    3
 10
4577.9317892696099
 20
2567.0794580313295
 11
4597.9317892696099
 21
2567.0794580313295
  0
LINE
  8
_0-2_
  6
CONTINUOUS
 62
    3
 10
4597.9317892696099
 20
2567.0794580313295
 11
4615.9317892696099
 21
2567.0794580313295
  0
LINE
  8
_0-2_
  6
CONTINUOUS
 62
    3
 10
4615.9317892696099
 20
2567.0794580313295
 11
4615.9317892696099
 21
1851.0794580313295
  0
LINE
  8
_0-2_
  6
CONTINUOUS
 62
    3
 10
4615.9317892696099
 20
1851.0794580313295
 11
4597.9317892696099
 21
1851.0794580313295
  0
LINE
  8
_0-2_
  6
CONTINUOUS
 62
    3
 10
4597.9317892696099
 20
1851.0794580313295
 11
4597.9317892696099
 21
2567.0794580313295
  0
LINE
  8
_0-2_
  6
CONTINUOUS
 62
    3
 10
4615.9317892696099
 20
2567.0794580313295
 11
5132.0239742970607
 21
2567.0794580313295
  0
LINE
  8
_0-2_
  6
CONTINUOUS
 62
    3
 10
5132.0239742970607
 20
2567.0794580313295
 11
5132.0239742970607
 21
2552.6725007631549
  0
LINE
  8
_0-2_
  6
CONTINUOUS
 62
    3
 10
5132.0239742970607
 20
2552.6725007631549
 11
5147.9317892696099
 21
2543.6725007631549
  0
LINE
  8
_0-2_
  6
CONTINUOUS
 62
    3
 10
5147.9317892696099
 20
2543.6725007631549
 11
5147.9317892696099
 21
1865.88645926598
  0
LINE
  8
_0-2_
  6
CONTINUOUS
 62
    3
 10
5147.9317892696099
 20
1865.88645926598
 11
5133.8450279469462
 21
1854.2673237837321
  0
LINE
  8
_0-2_
  6
CONTINUOUS
 62
    3
 10
5133.8450279469462
 20
1854.2673237837321
 11
5133.8450279469462
 21
1760.0794580313295
  0
LINE
  8
_0-2_
  6
CONTINUOUS
 62
    3
 10
5133.8450279469462
 20
1760.0794580313295
 11
4692.9317892696099
 21
1760.0794580313295
  0
LINE
  8
_0-2_
  6
CONTINUOUS
 62
    3
 10
4692.9317892696099
 20
1760.0794580313295
 11
4692.9317892696099
 21
1860.0794580313295
  0
LINE
  8
_0-2_
  6
CONTINUOUS
 62
    3
 10
4692.9317892696099
 20
1860.0794580313295
 11
4615.9317892696099
 21
1860.0794580313295
  0
LINE
  8
_0-2_
  6
CONTINUOUS
 62
    3
 10
4615.9317892696099
 20
1860.0794580313295
 11
4615.9317892696099
 21
2567.0794580313295
  0
LINE
  8
_0-2_
  6
CONTINUOUS
 62
    3
 10
4615.9317892696099
 20
1893.6025182705139
 11
5147.9317892696099
 21
1893.6025182705139
  0
LINE
  8
_0-3_
  6
CONTINUOUS
 62
    7
 10
1088.4495782770146
 20
2145.3338905451428
 11
988.44957817643171
 21
2145.3338905451428
  0
LINE
  8
_0-3_
  6
CONTINUOUS
 62
    7
 10
1088.4495782770146
 20
2715.3338905451428
 11
988.44957817643171
 21
2715.3338905451428
  0
LINE
  8
_0-3_
  6
CONTINUOUS
 62
    7
 10
988.44957817643171
 20
2145.3338905451428
 11
988.44957817643171
 21
2715.3338905451428
  0
CIRCLE
  8
_0-3_
  6
CONTINUOUS
 62
    7
 10
988.44957817643171
 20
2145.3338905451428
 40
5.9996337890625
  0
CIRCLE
  8
_0-3_
  6
CONTINUOUS
 62
    7
 10
988.44957817643171
 20
2715.3338905451428
 40
5.9996337890625
  0
TEXT
  8
_0-3_
 62
    7
 10
980.44957820623404
 20
2371.1747108576428
 40
95.25
 41
0.828125
 50
90
  1
570
  0
LINE
  8
_0-3_
  6
CONTINUOUS
 62
    7
 10
1206.4496091441906
 20
2757.5608755650296
 11
1206.4496091441906
 21
2857.5608756656125
  0
LINE
  8
_0-3_
  6
CONTINUOUS
 62
    7
 10
1803.4496091441906
 20
2757.5608755650296
 11
1803.4496091441906
 21
2857.5608756656125
  0
LINE
  8
_0-3_
  6
CONTINUOUS
 62
    7
 10
1206.4496091441906
 20
2857.5608756656125
 11
1803.4496091441906
 21
2857.5608756656125
  0
CIRCLE
  8
_0-3_
  6
CONTINUOUS
 62
    7
 10
1206.4496091441906
 20
2857.5608756656125
 40
5.9996337890625
  0
CIRCLE
  8
_0-3_
  6
CONTINUOUS
 62
    7
 10
1803.4496091441906
 20
2857.5608756656125
 40
5.9996337890625
  0
TEXT
  8
_0-3_
 62
    7
 10
1445.7904294566906
 20
2865.5608756358101
 40
95.25
 41
0.828125
 50
0
  1
597
  0
LINE
  8
_0-3_
  6
CONTINUOUS
 62
    7
 10
3109.2900447968968
 20
2719.3064431517992
 11
3109.2900447968968
 21
2844.0810676978354
  0
LINE
  8
_0-3_
  6
CONTINUOUS
 62
    7
 10
3706.2900447968968
 20
2719.3064431517992
 11
3706.2900447968968
 21
2844.0810676978354
  0
LINE
  8
_0-3_
  6
CONTINUOUS
 62
    7
 10
3109.2900447968968
 20
2844.0810676978354
 11
3706.2900447968968
 21
2844.0810676978354
  0
CIRCLE
  8
_0-3_
  6
CONTINUOUS
 62
    7
 10
3109.2900447968968
 20
2844.0810676978354
 40
5.9996337890625
  0
CIRCLE
  8
_0-3_
  6
CONTINUOUS
 62
    7
 10
3706.2900447968968
 20
2844.0810676978354
 40
5.9996337890625
  0
TEXT
  8
_0-3_
 62
    7
 10
3348.6308651093968
 20
2852.081067668033
 40
95.25
 41
0.828125
 50
0
  1
597
  0
LINE
  8
_0-3_
  6
CONTINUOUS
 62
    7
 10
3062.3222851480609
 20
1851.5794580313313
 11
2859.7072850772802
 21
1851.5794580313313
  0
LINE
  8
_0-3_
  6
CONTINUOUS
 62
    7
 10
3062.3222851480609
 20
2566.5794580313313
 11
2859.7072850772802
 21
2566.5794580313313
  0
LINE
  8
_0-3_
  6
CONTINUOUS
 62
    7
 10
2859.7072850772802
 20
1851.5794580313313
 11
2859.7072850772802
 21
2566.5794580313313
  0
CIRCLE
  8
_0-3_
  6
CONTINUOUS
 62
    7
 10
2859.7072850772802
 20
1851.5794580313313
 40
5.9996337890625
  0
CIRCLE
  8
_0-3_
  6
CONTINUOUS
 62
    7
 10
2859.7072850772802
 20
2566.5794580313313
 40
5.9996337890625
  0
TEXT
  8
_0-3_
 62
    7
 10
2851.7072851070825
 20
2063.5999591151294
 40
95.25
 41
0.828125
 50
90
  1
715
  0
TEXT
  8
_0-3_
 62
    7
 10
2851.7072851070825
 20
2181.918318490129
 40
95.25
 41
0.6041667137616946
 50
90
  1
 (ﾄﾞｱ)
  0
LINE
  8
_0-3_
  6
CONTINUOUS
 62
    7
 10
3110.7900447968968
 20
2059.0749426315756
 11
3110.7900447968968
 21
2159.0749427321584
  0
LINE
  8
_0-3_
  6
CONTINUOUS
 62
    7
 10
3704.7900447968968
 20
2259.0749428327408
 11
3704.7900447968968
 21
2159.0749427321584
  0
LINE
  8
_0-3_
  6
CONTINUOUS
 62
    7
 10
3110.7900447968968
 20
2159.0749427321584
 11
3704.7900447968968
 21
2159.0749427321584
  0
CIRCLE
  8
_0-3_
  6
CONTINUOUS
 62
    7
 10
3110.7900447968968
 20
2159.0749427321584
 40
5.9996337890625
  0
CIRCLE
  8
_0-3_
  6
CONTINUOUS
 62
    7
 10
3704.7900447968968
 20
2159.0749427321584
 40
5.9996337890625
  0
TEXT
  8
_0-3_
 62
    7
 10
3262.3105458806949
 20
2167.0749427023561
 40
95.25
 41
0.828125
 50
0
  1
594
  0
TEXT
  8
_0-3_
 62
    7
 10
3380.6289052556945
 20
2167.0749427023561
 40
95.25
 41
0.6041667137616946
 50
0
  1
 (ﾄﾞｱ)
  0
LINE
  8
_0-3_
  6
CONTINUOUS
 62
    7
 10
3062.3222851480609
 20
1751.0794580313313
 11
2859.7072850772802
 21
1751.0794580313313
  0
LINE
  8
_0-3_
  6
CONTINUOUS
 62
    7
 10
3062.3222851480609
 20
1851.0794580313313
 11
2859.7072850772802
 21
1851.0794580313313
  0
LINE
  8
_0-3_
  6
CONTINUOUS
 62
    7
 10
2859.7072850772802
 20
1751.0794580313313
 11
2859.7072850772802
 21
1851.0794580313313
  0
CIRCLE
  8
_0-3_
  6
CONTINUOUS
 62
    7
 10
2859.7072850772802
 20
1751.0794580313313
 40
5.9996337890625
  0
CIRCLE
  8
_0-3_
  6
CONTINUOUS
 62
    7
 10
2859.7072850772802
 20
1851.0794580313313
 40
5.9996337890625
  0
TEXT
  8
_0-3_
 62
    7
 10
2851.7072851070825
 20
1741.9202783438313
 40
95.25
 41
0.828125
 50
90
  1
100
  0
CIRCLE
  8
_0-4_
  6
CONTINUOUS
 62
    2
 10
3676.2900447968968
 20
1801.0794580313313
 40
7.5
  0
LINE
  8
_0-3_
  6
CONTINUOUS
 62
    4
 10
3647.2286274504286
 20
1751.0794580313313
 11
3547.2286273498457
 21
1751.0794580313313
  0
LINE
  8
_0-3_
  6
CONTINUOUS
 62
    4
 10
3647.2286274504286
 20
1801.0794580313313
 11
3547.2286273498457
 21
1801.0794580313313
  0
LINE
  8
_0-3_
  6
CONTINUOUS
 62
    4
 10
3547.2286273498457
 20
1751.0794580313313
 11
3547.2286273498457
 21
1665.4740588774084
  0
LINE
  8
_0-3_
  6
CONTINUOUS
 62
    4
 10
3547.2286273498457
 20
1751.0794580313313
 11
3547.2286273498457
 21
1801.0794580313313
  0
CIRCLE
  8
_0-3_
  6
CONTINUOUS
 62
    4
 10
3547.2286273498457
 20
1751.0794580313313
 40
5.9996337890625
  0
CIRCLE
  8
_0-3_
  6
CONTINUOUS
 62
    4
 10
3547.2286273498457
 20
1801.0794580313313
 40
5.9996337890625
  0
TEXT
  8
_0-3_
 62
    7
 10
3539.2286273796481
 20
1665.4740588774084
 40
95.25
 41
0.828125
 50
90
  1
50
  0
LINE
  8
_0-3_
  6
CONTINUOUS
 62
    4
 10
3676.2900447968968
 20
1700.1043780675125
 11
3676.2900447968968
 21
1600.1043779669294
  0
LINE
  8
_0-3_
  6
CONTINUOUS
 62
    4
 10
3706.2900447968968
 20
1700.1043780675125
 11
3706.2900447968968
 21
1600.1043779669294
  0
LINE
  8
_0-3_
  6
CONTINUOUS
 62
    4
 10
3706.2900447968968
 20
1600.1043779669294
 11
3797.0634014383922
 21
1600.1043779669294
  0
LINE
  8
_0-3_
  6
CONTINUOUS
 62
    4
 10
3676.2900447968968
 20
1600.1043779669294
 11
3706.2900447968968
 21
1600.1043779669294
  0
CIRCLE
  8
_0-3_
  6
CONTINUOUS
 62
    4
 10
3676.2900447968968
 20
1600.1043779669294
 40
5.9996337890625
  0
CIRCLE
  8
_0-3_
  6
CONTINUOUS
 62
    4
 10
3706.2900447968968
 20
1600.1043779669294
 40
5.9996337890625
  0
TEXT
  8
_0-3_
 62
    7
 10
3718.1844951883922
 20
1608.1043779371271
 40
95.25
 41
0.828125
 50
0
  1
30
  0
LINE
  8
_0-3_
  6
CONTINUOUS
 62
    7
 10
1188.4495783775974
 20
2183.3338905451428
 11
1088.4495782770146
 21
2183.3338905451428
  0
LINE
  8
_0-3_
  6
CONTINUOUS
 62
    7
 10
1188.4495783775974
 20
2715.3338905451428
 11
1088.4495782770146
 21
2715.3338905451428
  0
LINE
  8
_0-3_
  6
CONTINUOUS
 62
    7
 10
1088.4495782770146
 20
2183.3338905451428
 11
1088.4495782770146
 21
2715.3338905451428
  0
CIRCLE
  8
_0-3_
  6
CONTINUOUS
 62
    7
 10
1088.4495782770146
 20
2183.3338905451428
 40
5.9996337890625
  0
CIRCLE
  8
_0-3_
  6
CONTINUOUS
 62
    7
 10
1088.4495782770146
 20
2715.3338905451428
 40
5.9996337890625
  0
TEXT
  8
_0-3_
 62
    7
 10
1080.4495783068169
 20
2390.1747108576428
 40
95.25
 41
0.828125
 50
90
  1
532
  0
LINE
  8
_0-3_
  6
CONTINUOUS
 62
    7
 10
1188.4495783775974
 20
2145.3338905451428
 11
1088.4495782770146
 21
2145.3338905451428
  0
LINE
  8
_0-3_
  6
CONTINUOUS
 62
    7
 10
1188.4495783775974
 20
2183.3338905451428
 11
1088.4495782770146
 21
2183.3338905451428
  0
LINE
  8
_0-3_
  6
CONTINUOUS
 62
    7
 10
1088.4495782770146
 20
2183.3338905451428
 11
1088.4495782770146
 21
2262.2127967952429
  0
LINE
  8
_0-3_
  6
CONTINUOUS
 62
    7
 10
1088.4495782770146
 20
2145.3338905451428
 11
1088.4495782770146
 21
2183.3338905451428
  0
CIRCLE
  8
_0-3_
  6
CONTINUOUS
 62
    7
 10
1088.4495782770146
 20
2145.3338905451428
 40
5.9996337890625
  0
CIRCLE
  8
_0-3_
  6
CONTINUOUS
 62
    7
 10
1088.4495782770146
 20
2183.3338905451428
 40
5.9996337890625
  0
TEXT
  8
_0-3_
 62
    7
 10
1080.4495783068169
 20
2183.3338905452429
 40
95.25
 41
0.828125
 50
90
  1
38
  0
LINE
  8
_0-3_
  6
CONTINUOUS
 62
    7
 10
4577.9317892696099
 20
2722.3064431517992
 11
4577.9317892696099
 21
2847.0810676978358
  0
LINE
  8
_0-3_
  6
CONTINUOUS
 62
    7
 10
5147.9317892696099
 20
2722.3064431517992
 11
5147.9317892696099
 21
2847.0810676978358
  0
LINE
  8
_0-3_
  6
CONTINUOUS
 62
    7
 10
4577.9317892696099
 20
2847.0810676978358
 11
5147.9317892696099
 21
2847.0810676978358
  0
CIRCLE
  8
_0-3_
  6
CONTINUOUS
 62
    7
 10
4577.9317892696099
 20
2847.0810676978358
 40
5.9996337890625
  0
CIRCLE
  8
_0-3_
  6
CONTINUOUS
 62
    7
 10
5147.9317892696099
 20
2847.0810676978358
 40
5.9996337890625
  0
TEXT
  8
_0-3_
 62
    7
 10
4803.7726095821099
 20
2855.0810676680335
 40
95.25
 41
0.828125
 50
0
  1
570
  0
LINE
  8
_0-3_
  6
CONTINUOUS
 62
    7
 10
4577.9317892696099
 20
2597.5318186057625
 11
4577.9317892696099
 21
2722.3064431517992
  0
LINE
  8
_0-3_
  6
CONTINUOUS
 62
    7
 10
4615.9317892696099
 20
2597.5318186057625
 11
4615.9317892696099
 21
2722.3064431517992
  0
LINE
  8
_0-3_
  6
CONTINUOUS
 62
    7
 10
4615.9317892696099
 20
2722.3064431517992
 11
4694.81069551971
 21
2722.3064431517992
  0
LINE
  8
_0-3_
  6
CONTINUOUS
 62
    7
 10
4577.9317892696099
 20
2722.3064431517992
 11
4615.9317892696099
 21
2722.3064431517992
  0
CIRCLE
  8
_0-3_
  6
CONTINUOUS
 62
    7
 10
4577.9317892696099
 20
2722.3064431517992
 40
5.9996337890625
  0
CIRCLE
  8
_0-3_
  6
CONTINUOUS
 62
    7
 10
4615.9317892696099
 20
2722.3064431517992
 40
5.9996337890625
  0
TEXT
  8
_0-3_
 62
    7
 10
4615.93178926971
 20
2730.3064431219968
 40
95.25
 41
0.828125
 50
0
  1
38
  0
LINE
  8
_0-3_
  6
CONTINUOUS
 62
    7
 10
4615.9317892696099
 20
2597.5318186057625
 11
4615.9317892696099
 21
2722.3064431517992
  0
LINE
  8
_0-3_
  6
CONTINUOUS
 62
    7
 10
5147.9317892696099
 20
2597.5318186057625
 11
5147.9317892696099
 21
2722.3064431517992
  0
LINE
  8
_0-3_
  6
CONTINUOUS
 62
    7
 10
4615.9317892696099
 20
2722.3064431517992
 11
5147.9317892696099
 21
2722.3064431517992
  0
CIRCLE
  8
_0-3_
  6
CONTINUOUS
 62
    7
 10
4615.9317892696099
 20
2722.3064431517992
 40
5.9996337890625
  0
CIRCLE
  8
_0-3_
  6
CONTINUOUS
 62
    7
 10
5147.9317892696099
 20
2722.3064431517992
 40
5.9996337890625
  0
TEXT
  8
_0-3_
 62
    7
 10
4822.7726095821099
 20
2730.3064431219968
 40
95.25
 41
0.828125
 50
0
  1
532
  0
LINE
  8
_0-3_
  6
CONTINUOUS
 62
    7
 10
5223.5277771924948
 20
1751.0794580313295
 11
5425.2049124582309
 21
1751.0794580313295
  0
LINE
  8
_0-3_
  6
CONTINUOUS
 62
    7
 10
5223.5277771924948
 20
2567.0794580313295
 11
5425.2049124582309
 21
2567.0794580313295
  0
LINE
  8
_0-3_
  6
CONTINUOUS
 62
    7
 10
5425.2049124582309
 20
1751.0794580313295
 11
5425.2049124582309
 21
2567.0794580313295
  0
CIRCLE
  8
_0-3_
  6
CONTINUOUS
 62
    7
 10
5425.2049124582309
 20
1751.0794580313295
 40
5.9996337890625
  0
CIRCLE
  8
_0-3_
  6
CONTINUOUS
 62
    7
 10
5425.2049124582309
 20
2567.0794580313295
 40
5.9996337890625
  0
TEXT
  8
_0-3_
 62
    7
 10
5417.2049124880332
 20
2099.9202783438295
 40
95.25
 41
0.828125
 50
90
  1
816
  0
LINE
  8
_0-0_
  6
CONTINUOUS
 62
    4
 10
4723.5350885337357
 20
1756.0794580313295
 11
4700.5350885337348
 21
1756.0794580313295
  0
LINE
  8
_0-0_
  6
CONTINUOUS
 62
    4
 10
4723.5350885337357
 20
1751.0794580313295
 11
4700.5350885337348
 21
1751.0794580313295
  0
LINE
  8
_0-0_
  6
CONTINUOUS
 62
    4
 10
4707.0350885337348
 20
1760.0794580313295
 11
4707.0350885337348
 21
1756.0794580313295
  0
ARC
  8
_0-0_
  6
CONTINUOUS
 62
    4
 10
4700.5350885337348
 20
1753.5794580313277
 40
2.5
 50
90
 51
270
  0
LINE
  8
_0-0_
  6
CONTINUOUS
 62
    4
 10
4717.0350885337348
 20
1760.0794580313295
 11
4717.0350885337348
 21
1756.0794580313295
  0
ARC
  8
_0-0_
  6
CONTINUOUS
 62
    4
 10
4723.5350885337357
 20
1753.5794580313277
 40
2.5
 50
270
 51
90
  0
ARC
  8
_0-0_
  6
CONTINUOUS
 62
    4
 10
5084.7511116224623
 20
1753.5794580313277
 40
2.5
 50
270
 51
90
  0
ARC
  8
_0-0_
  6
CONTINUOUS
 62
    4
 10
5061.7511116224605
 20
1753.5794580313277
 40
2.5
 50
90
 51
270
  0
LINE
  8
_0-0_
  6
CONTINUOUS
 62
    4
 10
5068.2511116224623
 20
1760.0794580313295
 11
5068.2511116224623
 21
1756.0794580313295
  0
LINE
  8
_0-0_
  6
CONTINUOUS
 62
    4
 10
5078.2511116224605
 20
1760.0794580313295
 11
5078.2511116224605
 21
1756.0794580313295
  0
LINE
  8
_0-0_
  6
CONTINUOUS
 62
    4
 10
5061.7511116224605
 20
1751.0794580313295
 11
5084.7511116224623
 21
1751.0794580313295
  0
LINE
  8
_0-0_
  6
CONTINUOUS
 62
    4
 10
5061.7511116224605
 20
1756.0794580313295
 11
5084.7511116224623
 21
1756.0794580313295
  0
POINT
  8
_0-0_
 62
    7
 10
4905.4317892696099
 20
1760.0794580313295
  0
LINE
  8
_0-2_
  6
CONTINUOUS
 62
    3
 10
5123.6340587662335
 20
1801.0794580313295
 11
5123.7151334502423
 21
1801.1695127352118
  0
LINE
  8
_0-2_
  6
CONTINUOUS
 62
    3
 10
5123.7151334502423
 20
1801.1695127352118
 11
5123.796854521408
 21
1801.2603931676049
  0
LINE
  8
_0-2_
  6
CONTINUOUS
 62
    3
 10
5123.796854521408
 20
1801.2603931676049
 11
5123.8792219797333
 21
1801.3520993285088
  0
LINE
  8
_0-2_
  6
CONTINUOUS
 62
    3
 10
5123.8792219797333
 20
1801.3520993285088
 11
5123.9622358252154
 21
1801.4446312179234
  0
LINE
  8
_0-2_
  6
CONTINUOUS
 62
    3
 10
5123.9622358252154
 20
1801.4446312179234
 11
5124.0458960578553
 21
1801.5379888358489
  0
LINE
  8
_0-2_
  6
CONTINUOUS
 62
    3
 10
5124.0458960578553
 20
1801.5379888358489
 11
5124.130202677653
 21
1801.6321721822853
  0
LINE
  8
_0-2_
  6
CONTINUOUS
 62
    3
 10
5124.130202677653
 20
1801.6321721822853
 11
5124.2151556846075
 21
1801.7271812572324
  0
LINE
  8
_0-2_
  6
CONTINUOUS
 62
    3
 10
5124.2151556846075
 20
1801.7271812572324
 11
5124.3007550787215
 21
1801.8230160606904
  0
LINE
  8
_0-2_
  6
CONTINUOUS
 62
    3
 10
5124.3007550787215
 20
1801.8230160606904
 11
5124.3870008599924
 21
1801.919676592659
  0
LINE
  8
_0-2_
  6
CONTINUOUS
 62
    3
 10
5124.3870008599924
 20
1801.919676592659
 11
5124.4738930284211
 21
1802.0171628531386
  0
LINE
  8
_0-2_
  6
CONTINUOUS
 62
    3
 10
5124.4738930284211
 20
1802.0171628531386
 11
5124.5614315840066
 21
1802.1154748421291
  0
LINE
  8
_0-2_
  6
CONTINUOUS
 62
    3
 10
5124.5614315840066
 20
1802.1154748421291
 11
5124.6496165267508
 21
1802.2146125596303
  0
LINE
  8
_0-2_
  6
CONTINUOUS
 62
    3
 10
5124.6496165267508
 20
1802.2146125596303
 11
5124.7384478566528
 21
1802.314576005642
  0
LINE
  8
_0-2_
  6
CONTINUOUS
 62
    3
 10
5124.7384478566528
 20
1802.314576005642
 11
5124.8279255737107
 21
1802.4153651801648
  0
LINE
  8
_0-2_
  6
CONTINUOUS
 62
    3
 10
5124.8279255737107
 20
1802.4153651801648
 11
5124.9180496779281
 21
1802.5169800831984
  0
LINE
  8
_0-2_
  6
CONTINUOUS
 62
    3
 10
5124.9180496779281
 20
1802.5169800831984
 11
5125.0088201693034
 21
1802.6194207147428
  0
LINE
  8
_0-2_
  6
CONTINUOUS
 62
    3
 10
5125.0088201693034
 20
1802.6194207147428
 11
5125.1002370478363
 21
1802.7226870747977
  0
LINE
  8
_0-2_
  6
CONTINUOUS
 62
    3
 10
5125.1002370478363
 20
1802.7226870747977
 11
5125.1923003135271
 21
1802.8267791633639
  0
LINE
  8
_0-2_
  6
CONTINUOUS
 62
    3
 10
5125.1923003135271
 20
1802.8267791633639
 11
5125.2850099663738
 21
1802.9316969804406
  0
LINE
  8
_0-2_
  6
CONTINUOUS
 62
    3
 10
5125.2850099663738
 20
1802.9316969804406
 11
5125.37836600638
 21
1803.0374405260281
  0
LINE
  8
_0-2_
  6
CONTINUOUS
 62
    3
 10
5125.37836600638
 20
1803.0374405260281
 11
5125.4723684335431
 21
1803.1440098001267
  0
LINE
  8
_0-2_
  6
CONTINUOUS
 62
    3
 10
5125.4723684335431
 20
1803.1440098001267
 11
5125.5670172478658
 21
1803.2514048027358
  0
LINE
  8
_0-2_
  6
CONTINUOUS
 62
    3
 10
5125.5670172478658
 20
1803.2514048027358
 11
5125.6623124493444
 21
1803.3596255338557
  0
LINE
  8
_0-2_
  6
CONTINUOUS
 62
    3
 10
5125.6623124493444
 20
1803.3596255338557
 11
5125.7582540379808
 21
1803.4686719934866
  0
LINE
  8
_0-2_
  6
CONTINUOUS
 62
    3
 10
5125.7582540379808
 20
1803.4686719934866
 11
5125.8548420137759
 21
1803.5785441816281
  0
LINE
  8
_0-2_
  6
CONTINUOUS
 62
    3
 10
5125.8548420137759
 20
1803.5785441816281
 11
5125.9520763767268
 21
1803.6892420982804
  0
LINE
  8
_0-2_
  6
CONTINUOUS
 62
    3
 10
5125.9520763767268
 20
1803.6892420982804
 11
5126.0499571268374
 21
1803.8007657434437
  0
LINE
  8
_0-2_
  6
CONTINUOUS
 62
    3
 10
5126.0499571268374
 20
1803.8007657434437
 11
5126.1484842641048
 21
1803.9131151171177
  0
LINE
  8
_0-2_
  6
CONTINUOUS
 62
    3
 10
5126.1484842641048
 20
1803.9131151171177
 11
5126.2476577885309
 21
1804.0262902193024
  0
LINE
  8
_0-2_
  6
CONTINUOUS
 62
    3
 10
5126.2476577885309
 20
1804.0262902193024
 11
5126.3474777001138
 21
1804.140291049998
  0
LINE
  8
_0-2_
  6
CONTINUOUS
 62
    3
 10
5126.3474777001138
 20
1804.140291049998
 11
5126.4479439988545
 21
1804.2551176092045
  0
LINE
  8
_0-2_
  6
CONTINUOUS
 62
    3
 10
5126.4479439988545
 20
1804.2551176092045
 11
5126.5490566847529
 21
1804.3707698969217
  0
LINE
  8
_0-2_
  6
CONTINUOUS
 62
    3
 10
5126.5490566847529
 20
1804.3707698969217
 11
5126.6508157578101
 21
1804.48724791315
  0
LINE
  8
_0-2_
  6
CONTINUOUS
 62
    3
 10
5126.6508157578101
 20
1804.48724791315
 11
5126.753221218024
 21
1804.6045516578886
  0
LINE
  8
_0-2_
  6
CONTINUOUS
 62
    3
 10
5126.753221218024
 20
1804.6045516578886
 11
5126.8562730653957
 21
1804.7226811311382
  0
LINE
  8
_0-2_
  6
CONTINUOUS
 62
    3
 10
5126.8562730653957
 20
1804.7226811311382
 11
5126.9599712999252
 21
1804.8416363328986
  0
LINE
  8
_0-2_
  6
CONTINUOUS
 62
    3
 10
5126.9599712999252
 20
1804.8416363328986
 11
5127.0643159216124
 21
1804.9614172631698
  0
LINE
  8
_0-2_
  6
CONTINUOUS
 62
    3
 10
5127.0643159216124
 20
1804.9614172631698
 11
5127.1693069304565
 21
1805.082023921952
  0
LINE
  8
_0-2_
  6
CONTINUOUS
 62
    3
 10
5127.1693069304565
 20
1805.082023921952
 11
5127.2749443264602
 21
1805.2034563092448
  0
LINE
  8
_0-2_
  6
CONTINUOUS
 62
    3
 10
5127.2749443264602
 20
1805.2034563092448
 11
5127.3812281096207
 21
1805.3257144250483
  0
LINE
  8
_0-2_
  6
CONTINUOUS
 62
    3
 10
5127.3812281096207
 20
1805.3257144250483
 11
5127.4881582799389
 21
1805.4487982693629
  0
LINE
  8
_0-2_
  6
CONTINUOUS
 62
    3
 10
5127.4881582799389
 20
1805.4487982693629
 11
5127.595734837415
 21
1805.5727078421883
  0
LINE
  8
_0-2_
  6
CONTINUOUS
 62
    3
 10
5127.595734837415
 20
1805.5727078421883
 11
5127.7039577820487
 21
1805.6974431435242
  0
LINE
  8
_0-2_
  6
CONTINUOUS
 62
    3
 10
5127.7039577820487
 20
1805.6974431435242
 11
5127.8128271138403
 21
1805.8230041733711
  0
LINE
  8
_0-2_
  6
CONTINUOUS
 62
    3
 10
5127.8128271138403
 20
1805.8230041733711
 11
5127.9223428327896
 21
1805.9493909317289
  0
LINE
  8
_0-2_
  6
CONTINUOUS
 62
    3
 10
5127.9223428327896
 20
1805.9493909317289
 11
5128.0325049388966
 21
1806.0766034185972
  0
LINE
  8
_0-2_
  6
CONTINUOUS
 62
    3
 10
5128.0325049388966
 20
1806.0766034185972
 11
5128.1433134321605
 21
1806.2046416339765
  0
LINE
  8
_0-2_
  6
CONTINUOUS
 62
    3
 10
5128.1433134321605
 20
1806.2046416339765
 11
5128.2547683125831
 21
1806.3335055778666
  0
LINE
  8
_0-2_
  6
CONTINUOUS
 62
    3
 10
5128.2547683125831
 20
1806.3335055778666
 11
5128.3668695801634
 21
1806.4631952502673
  0
LINE
  8
_0-2_
  6
CONTINUOUS
 62
    3
 10
5128.3668695801634
 20
1806.4631952502673
 11
5128.4796172349015
 21
1806.5937106511792
  0
LINE
  8
_0-2_
  6
CONTINUOUS
 62
    3
 10
5128.4796172349015
 20
1806.5937106511792
 11
5128.5930112767965
 21
1806.7250517806017
  0
LINE
  8
_0-2_
  6
CONTINUOUS
 62
    3
 10
5128.5930112767965
 20
1806.7250517806017
 11
5128.7070517058501
 21
1806.857218638535
  0
LINE
  8
_0-2_
  6
CONTINUOUS
 62
    3
 10
5128.7070517058501
 20
1806.857218638535
 11
5128.8217385220605
 21
1806.990211224979
  0
LINE
  8
_0-2_
  6
CONTINUOUS
 62
    3
 10
5128.8217385220605
 20
1806.990211224979
 11
5128.9370717254296
 21
1807.1240295399341
  0
LINE
  8
_0-2_
  6
CONTINUOUS
 62
    3
 10
5128.9370717254296
 20
1807.1240295399341
 11
5129.0530513159574
 21
1807.2586735833997
  0
LINE
  8
_0-2_
  6
CONTINUOUS
 62
    3
 10
5129.0530513159574
 20
1807.2586735833997
 11
5129.1696772936402
 21
1807.3941433553762
  0
LINE
  8
_0-2_
  6
CONTINUOUS
 62
    3
 10
5129.1696772936402
 20
1807.3941433553762
 11
5129.2869496584826
 21
1807.5304388558634
  0
LINE
  8
_0-2_
  6
CONTINUOUS
 62
    3
 10
5129.2869496584826
 20
1807.5304388558634
 11
5129.4048684104828
 21
1807.6675600848616
  0
LINE
  8
_0-2_
  6
CONTINUOUS
 62
    3
 10
5129.4048684104828
 20
1807.6675600848616
 11
5129.5234335496398
 21
1807.8055070423704
  0
LINE
  8
_0-2_
  6
CONTINUOUS
 62
    3
 10
5129.5234335496398
 20
1807.8055070423704
 11
5129.6426450759554
 21
1807.9442797283903
  0
LINE
  8
_0-2_
  6
CONTINUOUS
 62
    3
 10
5129.6426450759554
 20
1807.9442797283903
 11
5129.7625029894289
 21
1808.0838781429206
  0
LINE
  8
_0-2_
  6
CONTINUOUS
 62
    3
 10
5129.7625029894289
 20
1808.0838781429206
 11
5129.8830072900591
 21
1808.224302285962
  0
LINE
  8
_0-2_
  6
CONTINUOUS
 62
    3
 10
5129.8830072900591
 20
1808.224302285962
 11
5130.0041579778472
 21
1808.3655521575142
  0
LINE
  8
_0-2_
  6
CONTINUOUS
 62
    3
 10
5130.0041579778472
 20
1808.3655521575142
 11
5130.1259550527939
 21
1808.5076277575772
  0
LINE
  8
_0-2_
  6
CONTINUOUS
 62
    3
 10
5130.1259550527939
 20
1808.5076277575772
 11
5130.2483977767115
 21
1808.6502689091103
  0
LINE
  8
_0-2_
  6
CONTINUOUS
 62
    3
 10
5130.2483977767115
 20
1808.6502689091103
 11
5130.3714854114132
 21
1808.7932154350731
  0
LINE
  8
_0-2_
  6
CONTINUOUS
 62
    3
 10
5130.3714854114132
 20
1808.7932154350731
 11
5130.4952179569
 21
1808.9364673354653
  0
LINE
  8
_0-2_
  6
CONTINUOUS
 62
    3
 10
5130.4952179569
 20
1808.9364673354653
 11
5130.6195954131726
 21
1809.080024610287
  0
LINE
  8
_0-2_
  6
CONTINUOUS
 62
    3
 10
5130.6195954131726
 20
1809.080024610287
 11
5130.7446177802285
 21
1809.2238872595385
  0
LINE
  8
_0-2_
  6
CONTINUOUS
 62
    3
 10
5130.7446177802285
 20
1809.2238872595385
 11
5130.8702850580712
 21
1809.3680552832193
  0
LINE
  8
_0-2_
  6
CONTINUOUS
 62
    3
 10
5130.8702850580712
 20
1809.3680552832193
 11
5130.9965972466962
 21
1809.5125286813297
  0
LINE
  8
_0-2_
  6
CONTINUOUS
 62
    3
 10
5130.9965972466962
 20
1809.5125286813297
 11
5131.1235543461089
 21
1809.6573074538699
  0
LINE
  8
_0-2_
  6
CONTINUOUS
 62
    3
 10
5131.1235543461089
 20
1809.6573074538699
 11
5131.2511563563039
 21
1809.8023916008397
  0
LINE
  8
_0-2_
  6
CONTINUOUS
 62
    3
 10
5131.2511563563039
 20
1809.8023916008397
 11
5131.3794032772857
 21
1809.9477811222387
  0
LINE
  8
_0-2_
  6
CONTINUOUS
 62
    3
 10
5131.3794032772857
 20
1809.9477811222387
 11
5131.5082951090517
 21
1810.0934760180676
  0
LINE
  8
_0-2_
  6
CONTINUOUS
 62
    3
 10
5131.5082951090517
 20
1810.0934760180676
 11
5131.6378318516017
 21
1810.2394762883255
  0
LINE
  8
_0-2_
  6
CONTINUOUS
 62
    3
 10
5131.6378318516017
 20
1810.2394762883255
 11
5131.7680135049377
 21
1810.3857819330133
  0
LINE
  8
_0-2_
  6
CONTINUOUS
 62
    3
 10
5131.7680135049377
 20
1810.3857819330133
 11
5131.8988400690578
 21
1810.5323929521307
  0
LINE
  8
_0-2_
  6
CONTINUOUS
 62
    3
 10
5131.8988400690578
 20
1810.5323929521307
 11
5132.0303115439629
 21
1810.6793093456779
  0
LINE
  8
_0-2_
  6
CONTINUOUS
 62
    3
 10
5132.0303115439629
 20
1810.6793093456779
 11
5132.1624279296529
 21
1810.8265311136543
  0
LINE
  8
_0-2_
  6
CONTINUOUS
 62
    3
 10
5132.1624279296529
 20
1810.8265311136543
 11
5132.2951892261281
 21
1810.9740582560605
  0
LINE
  8
_0-2_
  6
CONTINUOUS
 62
    3
 10
5132.2951892261281
 20
1810.9740582560605
 11
5132.4285954333864
 21
1811.121890772896
  0
LINE
  8
_0-2_
  6
CONTINUOUS
 62
    3
 10
5132.4285954333864
 20
1811.121890772896
 11
5132.5626465514315
 21
1811.2700286641611
  0
LINE
  8
_0-2_
  6
CONTINUOUS
 62
    3
 10
5132.5626465514315
 20
1811.2700286641611
 11
5132.6973425802607
 21
1811.418471929856
  0
LINE
  8
_0-2_
  6
CONTINUOUS
 62
    3
 10
5132.6973425802607
 20
1811.418471929856
 11
5132.832683519875
 21
1811.5672205699802
  0
LINE
  8
_0-2_
  6
CONTINUOUS
 62
    3
 10
5132.832683519875
 20
1811.5672205699802
 11
5132.9686693702743
 21
1811.7162745845344
  0
LINE
  8
_0-2_
  6
CONTINUOUS
 62
    3
 10
5132.9686693702743
 20
1811.7162745845344
 11
5133.1053001314576
 21
1811.8656339735176
  0
LINE
  8
_0-2_
  6
CONTINUOUS
 62
    3
 10
5133.1053001314576
 20
1811.8656339735176
 11
5133.242575803426
 21
1812.0152987369306
  0
LINE
  8
_0-2_
  6
CONTINUOUS
 62
    3
 10
5133.242575803426
 20
1812.0152987369306
 11
5133.3804963861803
 21
1812.1652688747733
  0
LINE
  8
_0-2_
  6
CONTINUOUS
 62
    3
 10
5133.3804963861803
 20
1812.1652688747733
 11
5133.5190618797187
 21
1812.3155443870453
  0
LINE
  8
_0-2_
  6
CONTINUOUS
 62
    3
 10
5133.5190618797187
 20
1812.3155443870453
 11
5133.6582722840421
 21
1812.4661252737471
  0
LINE
  8
_0-2_
  6
CONTINUOUS
 62
    3
 10
5133.6582722840421
 20
1812.4661252737471
 11
5133.7981275991497
 21
1812.6170115348782
  0
LINE
  8
_0-2_
  6
CONTINUOUS
 62
    3
 10
5133.7981275991497
 20
1812.6170115348782
 11
5133.938627825044
 21
1812.7682031704389
  0
LINE
  8
_0-2_
  6
CONTINUOUS
 62
    3
 10
5133.938627825044
 20
1812.7682031704389
 11
5134.0797729617207
 21
1812.9197001804296
  0
LINE
  8
_0-2_
  6
CONTINUOUS
 62
    3
 10
5134.0797729617207
 20
1812.9197001804296
 11
5134.2215630091832
 21
1813.0715025648492
  0
LINE
  8
_0-2_
  6
CONTINUOUS
 62
    3
 10
5134.2215630091832
 20
1813.0715025648492
 11
5134.3639979674308
 21
1813.2236103236987
  0
LINE
  8
_0-2_
  6
CONTINUOUS
 62
    3
 10
5134.3639979674308
 20
1813.2236103236987
 11
5134.5070778364625
 21
1813.3760234569777
  0
LINE
  8
_0-2_
  6
CONTINUOUS
 62
    3
 10
5134.5070778364625
 20
1813.3760234569777
 11
5134.6508026162801
 21
1813.5287419646863
  0
LINE
  8
_0-2_
  6
CONTINUOUS
 62
    3
 10
5134.6508026162801
 20
1813.5287419646863
 11
5134.7951723068818
 21
1813.6817658468246
  0
LINE
  8
_0-2_
  6
CONTINUOUS
 62
    3
 10
5134.7951723068818
 20
1813.6817658468246
 11
5134.9401869082685
 21
1813.8350951033922
  0
LINE
  8
_0-2_
  6
CONTINUOUS
 62
    3
 10
5134.9401869082685
 20
1813.8350951033922
 11
5135.0858464204412
 21
1813.9887297343896
  0
LINE
  8
_0-2_
  6
CONTINUOUS
 62
    3
 10
5135.0858464204412
 20
1813.9887297343896
 11
5135.2321508433961
 21
1814.1426697398163
  0
LINE
  8
_0-2_
  6
CONTINUOUS
 62
    3
 10
5135.2321508433961
 20
1814.1426697398163
 11
5135.3791001771378
 21
1814.2969151196726
  0
LINE
  8
_0-2_
  6
CONTINUOUS
 62
    3
 10
5135.3791001771378
 20
1814.2969151196726
 11
5135.5266944216646
 21
1814.4514658739586
  0
LINE
  8
_0-2_
  6
CONTINUOUS
 62
    3
 10
5135.5266944216646
 20
1814.4514658739586
 11
5135.6749335769746
 21
1814.606322002674
  0
LINE
  8
_0-2_
  6
CONTINUOUS
 62
    3
 10
5135.6749335769746
 20
1814.606322002674
 11
5135.8238176430714
 21
1814.7614835058193
  0
LINE
  8
_0-2_
  6
CONTINUOUS
 62
    3
 10
5135.8238176430714
 20
1814.7614835058193
 11
5135.9733466199523
 21
1814.9169503833937
  0
LINE
  8
_0-2_
  6
CONTINUOUS
 62
    3
 10
5135.9733466199523
 20
1814.9169503833937
 11
5136.1235205076173
 21
1815.0727226353979
  0
LINE
  8
_0-2_
  6
CONTINUOUS
 62
    3
 10
5136.1235205076173
 20
1815.0727226353979
 11
5136.2743393060664
 21
1815.2288002618318
  0
LINE
  8
_0-2_
  6
CONTINUOUS
 62
    3
 10
5136.2743393060664
 20
1815.2288002618318
 11
5136.4258030153014
 21
1815.3851832626949
  0
LINE
  8
_0-2_
  6
CONTINUOUS
 62
    3
 10
5136.4258030153014
 20
1815.3851832626949
 11
5136.5779116353215
 21
1815.5418716379879
  0
LINE
  8
_0-2_
  6
CONTINUOUS
 62
    3
 10
5136.5779116353215
 20
1815.5418716379879
 11
5136.7306651661256
 21
1815.6988653877102
  0
LINE
  8
_0-2_
  6
CONTINUOUS
 62
    3
 10
5136.7306651661256
 20
1815.6988653877102
 11
5136.8840636077166
 21
1815.8561645118621
  0
LINE
  8
_0-2_
  6
CONTINUOUS
 62
    3
 10
5136.8840636077166
 20
1815.8561645118621
 11
5137.0381069600908
 21
1816.0137690104439
  0
LINE
  8
_0-2_
  6
CONTINUOUS
 62
    3
 10
5137.0381069600908
 20
1816.0137690104439
 11
5137.19279522325
 21
1816.1716788834547
  0
LINE
  8
_0-2_
  6
CONTINUOUS
 62
    3
 10
5137.19279522325
 20
1816.1716788834547
 11
5137.3481283971942
 21
1816.3298941308954
  0
LINE
  8
_0-2_
  6
CONTINUOUS
 62
    3
 10
5137.3481283971942
 20
1816.3298941308954
 11
5137.5041064819234
 21
1816.4884147527659
  0
LINE
  8
_0-2_
  6
CONTINUOUS
 62
    3
 10
5137.5041064819234
 20
1816.4884147527659
 11
5137.6607294774376
 21
1816.6472407490655
  0
LINE
  8
_0-2_
  6
CONTINUOUS
 62
    3
 10
5137.6607294774376
 20
1816.6472407490655
 11
5137.8179973837359
 21
1816.8063721197948
  0
LINE
  8
_0-2_
  6
CONTINUOUS
 62
    3
 10
5137.8179973837359
 20
1816.8063721197948
 11
5137.9759102008193
 21
1816.9658088649539
  0
LINE
  8
_0-2_
  6
CONTINUOUS
 62
    3
 10
5137.9759102008193
 20
1816.9658088649539
 11
5138.1344679286867
 21
1817.1255509845421
  0
LINE
  8
_0-2_
  6
CONTINUOUS
 62
    3
 10
5138.1344679286867
 20
1817.1255509845421
 11
5138.293670567341
 21
1817.2855984785601
  0
LINE
  8
_0-2_
  6
CONTINUOUS
 62
    3
 10
5138.293670567341
 20
1817.2855984785601
 11
5138.4535181167776
 21
1817.4459513470078
  0
LINE
  8
_0-2_
  6
CONTINUOUS
 62
    3
 10
5138.4535181167776
 20
1817.4459513470078
 11
5138.6140105770019
 21
1817.606609589885
  0
LINE
  8
_0-2_
  6
CONTINUOUS
 62
    3
 10
5138.6140105770019
 20
1817.606609589885
 11
5138.7751479480085
 21
1817.7675732071916
  0
LINE
  8
_0-2_
  6
CONTINUOUS
 62
    3
 10
5138.7751479480085
 20
1817.7675732071916
 11
5138.9369302298019
 21
1817.9288421989279
  0
LINE
  8
_0-2_
  6
CONTINUOUS
 62
    3
 10
5138.9369302298019
 20
1817.9288421989279
 11
5139.0993574223785
 21
1818.0904165650938
  0
LINE
  8
_0-2_
  6
CONTINUOUS
 62
    3
 10
5139.0993574223785
 20
1818.0904165650938
 11
5139.2624295257419
 21
1818.252296305689
  0
LINE
  8
_0-2_
  6
CONTINUOUS
 62
    3
 10
5139.2624295257419
 20
1818.252296305689
 11
5139.425809385426
 21
1818.4136548077304
  0
LINE
  8
_0-2_
  6
CONTINUOUS
 62
    3
 10
5139.425809385426
 20
1818.4136548077304
 11
5139.589159846968
 21
1818.5736654582342
  0
LINE
  8
_0-2_
  6
CONTINUOUS
 62
    3
 10
5139.589159846968
 20
1818.5736654582342
 11
5139.7524809103697
 21
1818.7323282572006
  0
LINE
  8
_0-2_
  6
CONTINUOUS
 62
    3
 10
5139.7524809103697
 20
1818.7323282572006
 11
5139.9157725756286
 21
1818.8896432046297
  0
LINE
  8
_0-2_
  6
CONTINUOUS
 62
    3
 10
5139.9157725756286
 20
1818.8896432046297
 11
5140.0790348427463
 21
1819.0456103005213
  0
LINE
  8
_0-2_
  6
CONTINUOUS
 62
    3
 10
5140.0790348427463
 20
1819.0456103005213
 11
5140.2422677117229
 21
1819.2002295448751
  0
LINE
  8
_0-2_
  6
CONTINUOUS
 62
    3
 10
5140.2422677117229
 20
1819.2002295448751
 11
5140.4054711825584
 21
1819.3535009376915
  0
LINE
  8
_0-2_
  6
CONTINUOUS
 62
    3
 10
5140.4054711825584
 20
1819.3535009376915
 11
5140.5686452552527
 21
1819.5054244789706
  0
LINE
  8
_0-2_
  6
CONTINUOUS
 62
    3
 10
5140.5686452552527
 20
1819.5054244789706
 11
5140.731789929805
 21
1819.6560001687121
  0
LINE
  8
_0-2_
  6
CONTINUOUS
 62
    3
 10
5140.731789929805
 20
1819.6560001687121
 11
5140.8949052062153
 21
1819.805228006916
  0
LINE
  8
_0-2_
  6
CONTINUOUS
 62
    3
 10
5140.8949052062153
 20
1819.805228006916
 11
5141.0579910844845
 21
1819.9531079935823
  0
LINE
  8
_0-2_
  6
CONTINUOUS
 62
    3
 10
5141.0579910844845
 20
1819.9531079935823
 11
5141.2210475646125
 21
1820.0996401287114
  0
LINE
  8
_0-2_
  6
CONTINUOUS
 62
    3
 10
5141.2210475646125
 20
1820.0996401287114
 11
5141.3840746465994
 21
1820.2448244123029
  0
LINE
  8
_0-2_
  6
CONTINUOUS
 62
    3
 10
5141.3840746465994
 20
1820.2448244123029
 11
5141.5470723304443
 21
1820.3886608443572
  0
LINE
  8
_0-2_
  6
CONTINUOUS
 62
    3
 10
5141.5470723304443
 20
1820.3886608443572
 11
5141.710040616148
 21
1820.5311494248735
  0
LINE
  8
_0-2_
  6
CONTINUOUS
 62
    3
 10
5141.710040616148
 20
1820.5311494248735
 11
5141.8729795037098
 21
1820.6722901538526
  0
LINE
  8
_0-2_
  6
CONTINUOUS
 62
    3
 10
5141.8729795037098
 20
1820.6722901538526
 11
5142.0358889931304
 21
1820.8120830312942
  0
LINE
  8
_0-2_
  6
CONTINUOUS
 62
    3
 10
5142.0358889931304
 20
1820.8120830312942
 11
5142.1987690844089
 21
1820.9505280571984
  0
LINE
  8
_0-2_
  6
CONTINUOUS
 62
    3
 10
5142.1987690844089
 20
1820.9505280571984
 11
5142.3616197775473
 21
1821.0876252315647
  0
LINE
  8
_0-2_
  6
CONTINUOUS
 62
    3
 10
5142.3616197775473
 20
1821.0876252315647
 11
5142.5244410725445
 21
1821.2233745543938
  0
LINE
  8
_0-2_
  6
CONTINUOUS
 62
    3
 10
5142.5244410725445
 20
1821.2233745543938
 11
5142.6872329693997
 21
1821.3577760256853
  0
LINE
  8
_0-2_
  6
CONTINUOUS
 62
    3
 10
5142.6872329693997
 20
1821.3577760256853
 11
5142.849995468112
 21
1821.4908296454396
  0
LINE
  8
_0-2_
  6
CONTINUOUS
 62
    3
 10
5142.849995468112
 20
1821.4908296454396
 11
5143.012728568684
 21
1821.6225354136564
  0
LINE
  8
_0-2_
  6
CONTINUOUS
 62
    3
 10
5143.012728568684
 20
1821.6225354136564
 11
5143.175432271114
 21
1821.7528933303354
  0
LINE
  8
_0-2_
  6
CONTINUOUS
 62
    3
 10
5143.175432271114
 20
1821.7528933303354
 11
5143.3381065754029
 21
1821.8819033954769
  0
LINE
  8
_0-2_
  6
CONTINUOUS
 62
    3
 10
5143.3381065754029
 20
1821.8819033954769
 11
5143.5007514815516
 21
1822.0095656090812
  0
LINE
  8
_0-2_
  6
CONTINUOUS
 62
    3
 10
5143.5007514815516
 20
1822.0095656090812
 11
5143.6633669895573
 21
1822.1358799711479
  0
LINE
  8
_0-2_
  6
CONTINUOUS
 62
    3
 10
5143.6633669895573
 20
1822.1358799711479
 11
5143.8259530994219
 21
1822.2608464816769
  0
LINE
  8
_0-2_
  6
CONTINUOUS
 62
    3
 10
5143.8259530994219
 20
1822.2608464816769
 11
5143.9885098111445
 21
1822.3844651406685
  0
LINE
  8
_0-2_
  6
CONTINUOUS
 62
    3
 10
5143.9885098111445
 20
1822.3844651406685
 11
5144.1510371247277
 21
1822.5067359481227
  0
LINE
  8
_0-2_
  6
CONTINUOUS
 62
    3
 10
5144.1510371247277
 20
1822.5067359481227
 11
5144.3135350401681
 21
1822.6276589040394
  0
LINE
  8
_0-2_
  6
CONTINUOUS
 62
    3
 10
5144.3135350401681
 20
1822.6276589040394
 11
5144.4760035574664
 21
1822.7472340084187
  0
LINE
  8
_0-2_
  6
CONTINUOUS
 62
    3
 10
5144.4760035574664
 20
1822.7472340084187
 11
5144.6384426766235
 21
1822.8654612612604
  0
LINE
  8
_0-2_
  6
CONTINUOUS
 62
    3
 10
5144.6384426766235
 20
1822.8654612612604
 11
5144.8008523976396
 21
1822.9823406625646
  0
LINE
  8
_0-2_
  6
CONTINUOUS
 62
    3
 10
5144.8008523976396
 20
1822.9823406625646
 11
5144.9632327205145
 21
1823.0978722123314
  0
LINE
  8
_0-2_
  6
CONTINUOUS
 62
    3
 10
5144.9632327205145
 20
1823.0978722123314
 11
5145.1255836452474
 21
1823.2120559105606
  0
LINE
  8
_0-2_
  6
CONTINUOUS
 62
    3
 10
5145.1255836452474
 20
1823.2120559105606
 11
5145.2879051718392
 21
1823.3248917572523
  0
LINE
  8
_0-2_
  6
CONTINUOUS
 62
    3
 10
5145.2879051718392
 20
1823.3248917572523
 11
5145.4501973002889
 21
1823.4363797524065
  0
LINE
  8
_0-2_
  6
CONTINUOUS
 62
    3
 10
5145.4501973002889
 20
1823.4363797524065
 11
5145.6124600305984
 21
1823.5465198960233
  0
LINE
  8
_0-2_
  6
CONTINUOUS
 62
    3
 10
5145.6124600305984
 20
1823.5465198960233
 11
5145.774693362765
 21
1823.6553121881027
  0
LINE
  8
_0-2_
  6
CONTINUOUS
 62
    3
 10
5145.774693362765
 20
1823.6553121881027
 11
5145.9368972967914
 21
1823.7627566286442
  0
LINE
  8
_0-2_
  6
CONTINUOUS
 62
    3
 10
5145.9368972967914
 20
1823.7627566286442
 11
5146.0990718326757
 21
1823.8688532176488
  0
LINE
  8
_0-2_
  6
CONTINUOUS
 62
    3
 10
5146.0990718326757
 20
1823.8688532176488
 11
5146.2612169704189
 21
1823.9736019551156
  0
LINE
  8
_0-2_
  6
CONTINUOUS
 62
    3
 10
5146.2612169704189
 20
1823.9736019551156
 11
5146.4233327100201
 21
1824.077002841045
  0
LINE
  8
_0-2_
  6
CONTINUOUS
 62
    3
 10
5146.4233327100201
 20
1824.077002841045
 11
5146.5854190514801
 21
1824.1790558754365
  0
LINE
  8
_0-2_
  6
CONTINUOUS
 62
    3
 10
5146.5854190514801
 20
1824.1790558754365
 11
5146.7474759947982
 21
1824.2797610582909
  0
LINE
  8
_0-2_
  6
CONTINUOUS
 62
    3
 10
5146.7474759947982
 20
1824.2797610582909
 11
5146.909503539975
 21
1824.3791183896078
  0
LINE
  8
_0-2_
  6
CONTINUOUS
 62
    3
 10
5146.909503539975
 20
1824.3791183896078
 11
5147.0715016870126
 21
1824.4771278693872
  0
LINE
  8
_0-2_
  6
CONTINUOUS
 62
    3
 10
5147.0715016870126
 20
1824.4771278693872
 11
5147.2334704359055
 21
1824.5737894976289
  0
LINE
  8
_0-2_
  6
CONTINUOUS
 62
    3
 10
5147.2334704359055
 20
1824.5737894976289
 11
5147.395409786659
 21
1824.6691032743333
  0
LINE
  8
_0-2_
  6
CONTINUOUS
 62
    3
 10
5147.395409786659
 20
1824.6691032743333
 11
5147.5573197392705
 21
1824.7630691995005
  0
LINE
  8
_0-2_
  6
CONTINUOUS
 62
    3
 10
5147.5573197392705
 20
1824.7630691995005
 11
5147.71920029374
 21
1824.8556872731297
  0
LINE
  8
_0-2_
  6
CONTINUOUS
 62
    3
 10
5147.71920029374
 20
1824.8556872731297
 11
5147.8810514500683
 21
1824.9469574952218
  0
LINE
  8
_0-2_
  6
CONTINUOUS
 62
    3
 10
5147.8810514500683
 20
1824.9469574952218
 11
5148.0428732082555
 21
1825.036879865776
  0
LINE
  8
_0-2_
  6
CONTINUOUS
 62
    3
 10
5148.0428732082555
 20
1825.036879865776
 11
5148.2046655683016
 21
1825.1254543847929
  0
LINE
  8
_0-2_
  6
CONTINUOUS
 62
    3
 10
5148.2046655683016
 20
1825.1254543847929
 11
5148.3664285302057
 21
1825.2126810522725
  0
LINE
  8
_0-2_
  6
CONTINUOUS
 62
    3
 10
5148.3664285302057
 20
1825.2126810522725
 11
5148.5281620939677
 21
1825.2985598682144
  0
LINE
  8
_0-2_
  6
CONTINUOUS
 62
    3
 10
5148.5281620939677
 20
1825.2985598682144
 11
5148.6898662595886
 21
1825.3830908326188
  0
LINE
  8
_0-2_
  6
CONTINUOUS
 62
    3
 10
5148.6898662595886
 20
1825.3830908326188
 11
5148.8515410270693
 21
1825.4662739454857
  0
LINE
  8
_0-2_
  6
CONTINUOUS
 62
    3
 10
5148.8515410270693
 20
1825.4662739454857
 11
5149.013186396407
 21
1825.5481092068153
  0
LINE
  8
_0-2_
  6
CONTINUOUS
 62
    3
 10
5149.013186396407
 20
1825.5481092068153
 11
5149.1748023676046
 21
1825.6285966166072
  0
LINE
  8
_0-2_
  6
CONTINUOUS
 62
    3
 10
5149.1748023676046
 20
1825.6285966166072
 11
5149.3363889406592
 21
1825.7077361748616
  0
LINE
  8
_0-2_
  6
CONTINUOUS
 62
    3
 10
5149.3363889406592
 20
1825.7077361748616
 11
5149.4979461155726
 21
1825.7855278815787
  0
LINE
  8
_0-2_
  6
CONTINUOUS
 62
    3
 10
5149.4979461155726
 20
1825.7855278815787
 11
5149.659473892345
 21
1825.8619717367583
  0
LINE
  8
_0-2_
  6
CONTINUOUS
 62
    3
 10
5149.659473892345
 20
1825.8619717367583
 11
5149.8209527160498
 21
1825.9366114507191
  0
LINE
  8
_0-2_
  6
CONTINUOUS
 62
    3
 10
5149.8209527160498
 20
1825.9366114507191
 11
5149.9823630317596
 21
1826.0089907337806
  0
LINE
  8
_0-2_
  6
CONTINUOUS
 62
    3
 10
5149.9823630317596
 20
1826.0089907337806
 11
5150.1437048394764
 21
1826.079109585942
  0
LINE
  8
_0-2_
  6
CONTINUOUS
 62
    3
 10
5150.1437048394764
 20
1826.079109585942
 11
5150.3049781391974
 21
1826.1469680072039
  0
LINE
  8
_0-2_
  6
CONTINUOUS
 62
    3
 10
5150.3049781391974
 20
1826.1469680072039
 11
5150.4661829309243
 21
1826.2125659975663
  0
LINE
  8
_0-2_
  6
CONTINUOUS
 62
    3
 10
5150.4661829309243
 20
1826.2125659975663
 11
5150.6273192146582
 21
1826.2759035570289
  0
LINE
  8
_0-2_
  6
CONTINUOUS
 62
    3
 10
5150.6273192146582
 20
1826.2759035570289
 11
5150.7883869903972
 21
1826.3369806855917
  0
LINE
  8
_0-2_
  6
CONTINUOUS
 62
    3
 10
5150.7883869903972
 20
1826.3369806855917
 11
5150.9493862581421
 21
1826.3957973832548
  0
LINE
  8
_0-2_
  6
CONTINUOUS
 62
    3
 10
5150.9493862581421
 20
1826.3957973832548
 11
5151.1103170178922
 21
1826.4523536500183
  0
LINE
  8
_0-2_
  6
CONTINUOUS
 62
    3
 10
5151.1103170178922
 20
1826.4523536500183
 11
5151.2711792696473
 21
1826.5066494858822
  0
LINE
  8
_0-2_
  6
CONTINUOUS
 62
    3
 10
5151.2711792696473
 20
1826.5066494858822
 11
5151.4319730134093
 21
1826.5586848908467
  0
LINE
  8
_0-2_
  6
CONTINUOUS
 62
    3
 10
5151.4319730134093
 20
1826.5586848908467
 11
5151.5926982491774
 21
1826.6084598649113
  0
LINE
  8
_0-2_
  6
CONTINUOUS
 62
    3
 10
5151.5926982491774
 20
1826.6084598649113
 11
5151.7533549769496
 21
1826.655974408076
  0
LINE
  8
_0-2_
  6
CONTINUOUS
 62
    3
 10
5151.7533549769496
 20
1826.655974408076
 11
5151.9139431967287
 21
1826.7012285203414
  0
LINE
  8
_0-2_
  6
CONTINUOUS
 62
    3
 10
5151.9139431967287
 20
1826.7012285203414
 11
5152.0744629085139
 21
1826.7442222017066
  0
LINE
  8
_0-2_
  6
CONTINUOUS
 62
    3
 10
5152.0744629085139
 20
1826.7442222017066
 11
5152.2349141123041
 21
1826.7849554521727
  0
LINE
  8
_0-2_
  6
CONTINUOUS
 62
    3
 10
5152.2349141123041
 20
1826.7849554521727
 11
5152.3952968080994
 21
1826.8234282717387
  0
LINE
  8
_0-2_
  6
CONTINUOUS
 62
    3
 10
5152.3952968080994
 20
1826.8234282717387
 11
5152.5556109959007
 21
1826.8596406604051
  0
LINE
  8
_0-2_
  6
CONTINUOUS
 62
    3
 10
5152.5556109959007
 20
1826.8596406604051
 11
5152.7158566757089
 21
1826.8935926181721
  0
LINE
  8
_0-2_
  6
CONTINUOUS
 62
    3
 10
5152.7158566757089
 20
1826.8935926181721
 11
5152.8760338475222
 21
1826.9252841450393
  0
LINE
  8
_0-2_
  6
CONTINUOUS
 62
    3
 10
5152.8760338475222
 20
1826.9252841450393
 11
5153.0361425113406
 21
1826.9547152410066
  0
LINE
  8
_0-2_
  6
CONTINUOUS
 62
    3
 10
5153.0361425113406
 20
1826.9547152410066
 11
5153.196182667165
 21
1826.9818859060747
  0
LINE
  8
_0-2_
  6
CONTINUOUS
 62
    3
 10
5153.196182667165
 20
1826.9818859060747
 11
5153.3561543149954
 21
1827.0067961402426
  0
LINE
  8
_0-2_
  6
CONTINUOUS
 62
    3
 10
5153.3561543149954
 20
1827.0067961402426
 11
5153.5160574548308
 21
1827.0294459435113
  0
LINE
  8
_0-2_
  6
CONTINUOUS
 62
    3
 10
5153.5160574548308
 20
1827.0294459435113
 11
5153.6758920866723
 21
1827.04983531588
  0
LINE
  8
_0-2_
  6
CONTINUOUS
 62
    3
 10
5153.6758920866723
 20
1827.04983531588
 11
5153.8356582105189
 21
1827.0679642573491
  0
LINE
  8
_0-2_
  6
CONTINUOUS
 62
    3
 10
5153.8356582105189
 20
1827.0679642573491
 11
5153.9953558263724
 21
1827.0838327679187
  0
LINE
  8
_0-2_
  6
CONTINUOUS
 62
    3
 10
5153.9953558263724
 20
1827.0838327679187
 11
5154.1549849342309
 21
1827.0974408475881
  0
LINE
  8
_0-2_
  6
CONTINUOUS
 62
    3
 10
5154.1549849342309
 20
1827.0974408475881
 11
5154.3145455340964
 21
1827.1087884963583
  0
LINE
  8
_0-2_
  6
CONTINUOUS
 62
    3
 10
5154.3145455340964
 20
1827.1087884963583
 11
5154.4740376259651
 21
1827.1178757142288
  0
LINE
  8
_0-2_
  6
CONTINUOUS
 62
    3
 10
5154.4740376259651
 20
1827.1178757142288
 11
5154.6334612098417
 21
1827.1247025011996
  0
LINE
  8
_0-2_
  6
CONTINUOUS
 62
    3
 10
5154.6334612098417
 20
1827.1247025011996
 11
5154.7928162857224
 21
1827.1292688572707
  0
LINE
  8
_0-2_
  6
CONTINUOUS
 62
    3
 10
5154.7928162857224
 20
1827.1292688572707
 11
5154.952102853611
 21
1827.1315747824424
  0
LINE
  8
_0-2_
  6
CONTINUOUS
 62
    3
 10
5154.952102853611
 20
1827.1315747824424
 11
5155.1113209135028
 21
1827.1316202767139
  0
LINE
  8
_0-2_
  6
CONTINUOUS
 62
    3
 10
5155.1113209135028
 20
1827.1316202767139
 11
5155.2704704654016
 21
1827.1294053400859
  0
LINE
  8
_0-2_
  6
CONTINUOUS
 62
    3
 10
5155.2704704654016
 20
1827.1294053400859
 11
5155.4295515093054
 21
1827.1249299725584
  0
LINE
  8
_0-2_
  6
CONTINUOUS
 62
    3
 10
5155.4295515093054
 20
1827.1249299725584
 11
5155.5885640452152
 21
1827.1181941741313
  0
LINE
  8
_0-2_
  6
CONTINUOUS
 62
    3
 10
5155.5885640452152
 20
1827.1181941741313
 11
5155.7475080731319
 21
1827.1091979448042
  0
LINE
  8
_0-2_
  6
CONTINUOUS
 62
    3
 10
5155.7475080731319
 20
1827.1091979448042
 11
5155.9063835930538
 21
1827.0979412845777
  0
LINE
  8
_0-2_
  6
CONTINUOUS
 62
    3
 10
5155.9063835930538
 20
1827.0979412845777
 11
5156.0651906049807
 21
1827.0844241934515
  0
LINE
  8
_0-2_
  6
CONTINUOUS
 62
    3
 10
5156.0651906049807
 20
1827.0844241934515
 11
5156.2239291089136
 21
1827.0686466714255
  0
LINE
  8
_0-2_
  6
CONTINUOUS
 62
    3
 10
5156.2239291089136
 20
1827.0686466714255
 11
5156.3825991048525
 21
1827.0506087184999
  0
LINE
  8
_0-2_
  6
CONTINUOUS
 62
    3
 10
5156.3825991048525
 20
1827.0506087184999
 11
5156.5412005927965
 21
1827.0303103346746
  0
LINE
  8
_0-2_
  6
CONTINUOUS
 62
    3
 10
5156.5412005927965
 20
1827.0303103346746
 11
5156.6997335727456
 21
1827.0077515199496
  0
LINE
  8
_0-2_
  6
CONTINUOUS
 62
    3
 10
5156.6997335727456
 20
1827.0077515199496
 11
5156.8581980447016
 21
1826.9829322743249
  0
LINE
  8
_0-2_
  6
CONTINUOUS
 62
    3
 10
5156.8581980447016
 20
1826.9829322743249
 11
5157.0165940086627
 21
1826.9558525978005
  0
LINE
  8
_0-2_
  6
CONTINUOUS
 62
    3
 10
5157.0165940086627
 20
1826.9558525978005
 11
5157.1749214646297
 21
1826.9265124903766
  0
LINE
  8
_0-2_
  6
CONTINUOUS
 62
    3
 10
5157.1749214646297
 20
1826.9265124903766
 11
5157.3331804126028
 21
1826.8949119520528
  0
LINE
  8
_0-2_
  6
CONTINUOUS
 62
    3
 10
5157.3331804126028
 20
1826.8949119520528
 11
5157.491370852581
 21
1826.8610509828295
  0
LINE
  8
_0-2_
  6
CONTINUOUS
 62
    3
 10
5157.491370852581
 20
1826.8610509828295
 11
5157.6494927845652
 21
1826.8249295827063
  0
LINE
  8
_0-2_
  6
CONTINUOUS
 62
    3
 10
5157.6494927845652
 20
1826.8249295827063
 11
5157.8075462085553
 21
1826.7865477516839
  0
LINE
  8
_0-2_
  6
CONTINUOUS
 62
    3
 10
5157.8075462085553
 20
1826.7865477516839
 11
5157.9655311245506
 21
1826.7459054897618
  0
LINE
  8
_0-2_
  6
CONTINUOUS
 62
    3
 10
5157.9655311245506
 20
1826.7459054897618
 11
5158.1234475325527
 21
1826.7030027969395
  0
LINE
  8
_0-2_
  6
CONTINUOUS
 62
    3
 10
5158.1234475325527
 20
1826.7030027969395
 11
5158.28129543256
 21
1826.6578396732179
  0
LINE
  8
_0-2_
  6
CONTINUOUS
 62
    3
 10
5158.28129543256
 20
1826.6578396732179
 11
5158.4390748245723
 21
1826.6104161185965
  0
LINE
  8
_0-2_
  6
CONTINUOUS
 62
    3
 10
5158.4390748245723
 20
1826.6104161185965
 11
5158.5967857085907
 21
1826.5607321330754
  0
LINE
  8
_0-2_
  6
CONTINUOUS
 62
    3
 10
5158.5967857085907
 20
1826.5607321330754
 11
5158.7544280846141
 21
1826.5087877166548
  0
LINE
  8
_0-2_
  6
CONTINUOUS
 62
    3
 10
5158.7544280846141
 20
1826.5087877166548
 11
5158.9120019526435
 21
1826.4545828693344
  0
LINE
  8
_0-2_
  6
CONTINUOUS
 62
    3
 10
5158.9120019526435
 20
1826.4545828693344
 11
5159.069507312679
 21
1826.3981175911144
  0
LINE
  8
_0-2_
  6
CONTINUOUS
 62
    3
 10
5159.069507312679
 20
1826.3981175911144
 11
5159.2269441647204
 21
1826.3393918819947
  0
LINE
  8
_0-2_
  6
CONTINUOUS
 62
    3
 10
5159.2269441647204
 20
1826.3393918819947
 11
5159.3843125087678
 21
1826.2784057419753
  0
LINE
  8
_0-2_
  6
CONTINUOUS
 62
    3
 10
5159.3843125087678
 20
1826.2784057419753
 11
5159.5416123448204
 21
1826.2151591710563
  0
LINE
  8
_0-2_
  6
CONTINUOUS
 62
    3
 10
5159.5416123448204
 20
1826.2151591710563
 11
5159.6988436728789
 21
1826.1496521692375
  0
LINE
  8
_0-2_
  6
CONTINUOUS
 62
    3
 10
5159.6988436728789
 20
1826.1496521692375
 11
5159.8560064929425
 21
1826.081884736519
  0
LINE
  8
_0-2_
  6
CONTINUOUS
 62
    3
 10
5159.8560064929425
 20
1826.081884736519
 11
5160.0131486497266
 21
1826.0123368619386
  0
LINE
  8
_0-2_
  6
CONTINUOUS
 62
    3
 10
5160.0131486497266
 20
1826.0123368619386
 11
5160.170317987946
 21
1825.9414885345345
  0
LINE
  8
_0-2_
  6
CONTINUOUS
 62
    3
 10
5160.170317987946
 20
1825.9414885345345
 11
5160.3275145076004
 21
1825.8693397543059
  0
LINE
  8
_0-2_
  6
CONTINUOUS
 62
    3
 10
5160.3275145076004
 20
1825.8693397543059
 11
5160.48473820869
 21
1825.7958905212533
  0
LINE
  8
_0-2_
  6
CONTINUOUS
 62
    3
 10
5160.48473820869
 20
1825.7958905212533
 11
5160.6419890912148
 21
1825.7211408353769
  0
LINE
  8
_0-2_
  6
CONTINUOUS
 62
    3
 10
5160.6419890912148
 20
1825.7211408353769
 11
5160.7992671551747
 21
1825.6450906966761
  0
LINE
  8
_0-2_
  6
CONTINUOUS
 62
    3
 10
5160.7992671551747
 20
1825.6450906966761
 11
5160.9565724005688
 21
1825.5677401051514
  0
LINE
  8
_0-2_
  6
CONTINUOUS
 62
    3
 10
5160.9565724005688
 20
1825.5677401051514
 11
5161.1139048273981
 21
1825.4890890608024
  0
LINE
  8
_0-2_
  6
CONTINUOUS
 62
    3
 10
5161.1139048273981
 20
1825.4890890608024
 11
5161.2712644356625
 21
1825.4091375636294
  0
LINE
  8
_0-2_
  6
CONTINUOUS
 62
    3
 10
5161.2712644356625
 20
1825.4091375636294
 11
5161.428651225362
 21
1825.3278856136328
  0
LINE
  8
_0-2_
  6
CONTINUOUS
 62
    3
 10
5161.428651225362
 20
1825.3278856136328
 11
5161.5860651964967
 21
1825.2453332108116
  0
LINE
  8
_0-2_
  6
CONTINUOUS
 62
    3
 10
5161.5860651964967
 20
1825.2453332108116
 11
5161.7435063490666
 21
1825.1614803551663
  0
LINE
  8
_0-2_
  6
CONTINUOUS
 62
    3
 10
5161.7435063490666
 20
1825.1614803551663
 11
5161.9009746830716
 21
1825.0763270466973
  0
LINE
  8
_0-2_
  6
CONTINUOUS
 62
    3
 10
5161.9009746830716
 20
1825.0763270466973
 11
5162.0584701985099
 21
1824.989873285404
  0
LINE
  8
_0-2_
  6
CONTINUOUS
 62
    3
 10
5162.0584701985099
 20
1824.989873285404
 11
5162.2159928953852
 21
1824.9021190712867
  0
LINE
  8
_0-2_
  6
CONTINUOUS
 62
    3
 10
5162.2159928953852
 20
1824.9021190712867
 11
5162.3735427736947
 21
1824.8130644043451
  0
LINE
  8
_0-2_
  6
CONTINUOUS
 62
    3
 10
5162.3735427736947
 20
1824.8130644043451
 11
5162.5311198334393
 21
1824.7227092845797
  0
LINE
  8
_0-2_
  6
CONTINUOUS
 62
    3
 10
5162.5311198334393
 20
1824.7227092845797
 11
5162.6887240746191
 21
1824.6310537119898
  0
LINE
  8
_0-2_
  6
CONTINUOUS
 62
    3
 10
5162.6887240746191
 20
1824.6310537119898
 11
5162.8463554972332
 21
1824.5380976865763
  0
LINE
  8
_0-2_
  6
CONTINUOUS
 62
    3
 10
5162.8463554972332
 20
1824.5380976865763
 11
5163.0040141012832
 21
1824.4438412083387
  0
LINE
  8
_0-2_
  6
CONTINUOUS
 62
    3
 10
5163.0040141012832
 20
1824.4438412083387
 11
5163.1616998867685
 21
1824.3482842772767
  0
LINE
  8
_0-2_
  6
CONTINUOUS
 62
    3
 10
5163.1616998867685
 20
1824.3482842772767
 11
5163.3194128536879
 21
1824.2514268933908
  0
LINE
  8
_0-2_
  6
CONTINUOUS
 62
    3
 10
5163.3194128536879
 20
1824.2514268933908
 11
5163.4771530020425
 21
1824.1532690566808
  0
LINE
  8
_0-2_
  6
CONTINUOUS
 62
    3
 10
5163.4771530020425
 20
1824.1532690566808
 11
5163.6349203318323
 21
1824.0538107671468
  0
LINE
  8
_0-2_
  6
CONTINUOUS
 62
    3
 10
5163.6349203318323
 20
1824.0538107671468
 11
5163.7927148430572
 21
1823.9530520247886
  0
LINE
  8
_0-2_
  6
CONTINUOUS
 62
    3
 10
5163.7927148430572
 20
1823.9530520247886
 11
5163.9505365357172
 21
1823.8509928296066
  0
LINE
  8
_0-2_
  6
CONTINUOUS
 62
    3
 10
5163.9505365357172
 20
1823.8509928296066
 11
5164.1083854098124
 21
1823.7476331816001
  0
LINE
  8
_0-2_
  6
CONTINUOUS
 62
    3
 10
5164.1083854098124
 20
1823.7476331816001
 11
5164.2662614653418
 21
1823.6429730807697
  0
LINE
  8
_0-2_
  6
CONTINUOUS
 62
    3
 10
5164.2662614653418
 20
1823.6429730807697
 11
5164.4241647023064
 21
1823.5370125271152
  0
LINE
  8
_0-2_
  6
CONTINUOUS
 62
    3
 10
5164.4241647023064
 20
1823.5370125271152
 11
5164.5820951207061
 21
1823.4297515206367
  0
LINE
  8
_0-2_
  6
CONTINUOUS
 62
    3
 10
5164.5820951207061
 20
1823.4297515206367
 11
5164.7400527205409
 21
1823.3211900613342
  0
LINE
  8
_0-2_
  6
CONTINUOUS
 62
    3
 10
5164.7400527205409
 20
1823.3211900613342
 11
5164.8980375018109
 21
1823.2113281492075
  0
LINE
  8
_0-2_
  6
CONTINUOUS
 62
    3
 10
5164.8980375018109
 20
1823.2113281492075
 11
5165.056049464516
 21
1823.1001657842567
  0
LINE
  8
_0-2_
  6
CONTINUOUS
 62
    3
 10
5165.056049464516
 20
1823.1001657842567
 11
5165.2140886086554
 21
1822.9877029664817
  0
LINE
  8
_0-2_
  6
CONTINUOUS
 62
    3
 10
5165.2140886086554
 20
1822.9877029664817
 11
5165.3721549342308
 21
1822.8739396958829
  0
LINE
  8
_0-2_
  6
CONTINUOUS
 62
    3
 10
5165.3721549342308
 20
1822.8739396958829
 11
5165.5302484412405
 21
1822.7588759724599
  0
LINE
  8
_0-2_
  6
CONTINUOUS
 62
    3
 10
5165.5302484412405
 20
1822.7588759724599
 11
5165.6883691296853
 21
1822.6425117962128
  0
LINE
  8
_0-2_
  6
CONTINUOUS
 62
    3
 10
5165.6883691296853
 20
1822.6425117962128
 11
5165.8465169995652
 21
1822.5248471671418
  0
LINE
  8
_0-2_
  6
CONTINUOUS
 62
    3
 10
5165.8465169995652
 20
1822.5248471671418
 11
5166.0046920508812
 21
1822.4058820852465
  0
LINE
  8
_0-2_
  6
CONTINUOUS
 62
    3
 10
5166.0046920508812
 20
1822.4058820852465
 11
5166.1628942836305
 21
1822.2856165505273
  0
LINE
  8
_0-2_
  6
CONTINUOUS
 62
    3
 10
5166.1628942836305
 20
1822.2856165505273
 11
5166.3211236978159
 21
1822.1640505629839
  0
LINE
  8
_0-2_
  6
CONTINUOUS
 62
    3
 10
5166.3211236978159
 20
1822.1640505629839
 11
5166.4793802934355
 21
1822.0411841226164
  0
LINE
  8
_0-2_
  6
CONTINUOUS
 62
    3
 10
5166.4793802934355
 20
1822.0411841226164
 11
5166.6376640704912
 21
1821.917017229425
  0
LINE
  8
_0-2_
  6
CONTINUOUS
 62
    3
 10
5166.6376640704912
 20
1821.917017229425
 11
5166.795975028981
 21
1821.7915498834091
  0
LINE
  8
_0-2_
  6
CONTINUOUS
 62
    3
 10
5166.795975028981
 20
1821.7915498834091
 11
5166.9543131689061
 21
1821.6647820845697
  0
LINE
  8
_0-2_
  6
CONTINUOUS
 62
    3
 10
5166.9543131689061
 20
1821.6647820845697
 11
5167.1126784902663
 21
1821.5367138329057
  0
LINE
  8
_0-2_
  6
CONTINUOUS
 62
    3
 10
5167.1126784902663
 20
1821.5367138329057
 11
5167.2710709930607
 21
1821.407345128418
  0
LINE
  8
_0-2_
  6
CONTINUOUS
 62
    3
 10
5167.2710709930607
 20
1821.407345128418
 11
5167.4294906772911
 21
1821.2766759711058
  0
LINE
  8
_0-2_
  6
CONTINUOUS
 62
    3
 10
5167.4294906772911
 20
1821.2766759711058
 11
5167.5879375429568
 21
1821.1447063609698
  0
LINE
  8
_0-2_
  6
CONTINUOUS
 62
    3
 10
5167.5879375429568
 20
1821.1447063609698
 11
5167.7464115900566
 21
1821.0114362980098
  0
LINE
  8
_0-2_
  6
CONTINUOUS
 62
    3
 10
5167.7464115900566
 20
1821.0114362980098
 11
5167.9049128185925
 21
1820.8768657822259
  0
LINE
  8
_0-2_
  6
CONTINUOUS
 62
    3
 10
5167.9049128185925
 20
1820.8768657822259
 11
5168.0634412285617
 21
1820.7409948136174
  0
LINE
  8
_0-2_
  6
CONTINUOUS
 62
    3
 10
5168.0634412285617
 20
1820.7409948136174
 11
5168.221996819967
 21
1820.6038233921854
  0
LINE
  8
_0-2_
  6
CONTINUOUS
 62
    3
 10
5168.221996819967
 20
1820.6038233921854
 11
5168.3805795928074
 21
1820.4653515179289
  0
LINE
  8
_0-2_
  6
CONTINUOUS
 62
    3
 10
5168.3805795928074
 20
1820.4653515179289
 11
5168.5391895470821
 21
1820.3255791908484
  0
LINE
  8
_0-2_
  6
CONTINUOUS
 62
    3
 10
5168.5391895470821
 20
1820.3255791908484
 11
5168.6978266827928
 21
1820.1845064109439
  0
LINE
  8
_0-2_
  6
CONTINUOUS
 62
    3
 10
5168.6978266827928
 20
1820.1845064109439
 11
5168.8564909999377
 21
1820.0421331782152
  0
LINE
  8
_0-2_
  6
CONTINUOUS
 62
    3
 10
5168.8564909999377
 20
1820.0421331782152
 11
5169.0151824985187
 21
1819.8984594926626
  0
LINE
  8
_0-2_
  6
CONTINUOUS
 62
    3
 10
5169.0151824985187
 20
1819.8984594926626
 11
5169.1739011785339
 21
1819.7534853542857
  0
LINE
  8
_0-2_
  6
CONTINUOUS
 62
    3
 10
5169.1739011785339
 20
1819.7534853542857
 11
5169.3326470399843
 21
1819.6072107630848
  0
LINE
  8
_0-2_
  6
CONTINUOUS
 62
    3
 10
5169.3326470399843
 20
1819.6072107630848
 11
5169.4914200828698
 21
1819.4596357190599
  0
LINE
  8
_0-2_
  6
CONTINUOUS
 62
    3
 10
5169.4914200828698
 20
1819.4596357190599
 11
5169.6502203071896
 21
1819.3107602222108
  0
LINE
  8
_0-2_
  6
CONTINUOUS
 62
    3
 10
5169.6502203071896
 20
1819.3107602222108
 11
5169.8090477129444
 21
1819.1605842725378
  0
LINE
  8
_0-2_
  6
CONTINUOUS
 62
    3
 10
5169.8090477129444
 20
1819.1605842725378
 11
5169.9679023001354
 21
1819.0091078700407
  0
LINE
  8
_0-2_
  6
CONTINUOUS
 62
    3
 10
5169.9679023001354
 20
1819.0091078700407
 11
5170.1266859348852
 21
1818.857214839343
  0
LINE
  8
_0-2_
  6
CONTINUOUS
 62
    3
 10
5170.1266859348852
 20
1818.857214839343
 11
5170.2853004833241
 21
1818.7057890050683
  0
LINE
  8
_0-2_
  6
CONTINUOUS
 62
    3
 10
5170.2853004833241
 20
1818.7057890050683
 11
5170.4437459454493
 21
1818.5548303672163
  0
LINE
  8
_0-2_
  6
CONTINUOUS
 62
    3
 10
5170.4437459454493
 20
1818.5548303672163
 11
5170.6020223212618
 21
1818.4043389257877
  0
LINE
  8
_0-2_
  6
CONTINUOUS
 62
    3
 10
5170.6020223212618
 20
1818.4043389257877
 11
5170.7601296107605
 21
1818.254314680782
  0
LINE
  8
_0-2_
  6
CONTINUOUS
 62
    3
 10
5170.7601296107605
 20
1818.254314680782
 11
5170.9180678139446
 21
1818.1047576321994
  0
LINE
  8
_0-2_
  6
CONTINUOUS
 62
    3
 10
5170.9180678139446
 20
1818.1047576321994
 11
5171.0758369308169
 21
1817.9556677800394
  0
LINE
  8
_0-2_
  6
CONTINUOUS
 62
    3
 10
5171.0758369308169
 20
1817.9556677800394
 11
5171.2334369613745
 21
1817.8070451243025
  0
LINE
  8
_0-2_
  6
CONTINUOUS
 62
    3
 10
5171.2334369613745
 20
1817.8070451243025
 11
5171.3908679056203
 21
1817.6588896649887
  0
LINE
  8
_0-2_
  6
CONTINUOUS
 62
    3
 10
5171.3908679056203
 20
1817.6588896649887
 11
5171.5481297635524
 21
1817.5112014020976
  0
LINE
  8
_0-2_
  6
CONTINUOUS
 62
    3
 10
5171.5481297635524
 20
1817.5112014020976
 11
5171.7052225351708
 21
1817.3639803356298
  0
LINE
  8
_0-2_
  6
CONTINUOUS
 62
    3
 10
5171.7052225351708
 20
1817.3639803356298
 11
5171.8621462204774
 21
1817.2172264655851
  0
LINE
  8
_0-2_
  6
CONTINUOUS
 62
    3
 10
5171.8621462204774
 20
1817.2172264655851
 11
5172.0189008194702
 21
1817.0709397919632
  0
LINE
  8
_0-2_
  6
CONTINUOUS
 62
    3
 10
5172.0189008194702
 20
1817.0709397919632
 11
5172.1754863321494
 21
1816.9251203147642
  0
LINE
  8
_0-2_
  6
CONTINUOUS
 62
    3
 10
5172.1754863321494
 20
1816.9251203147642
 11
5172.3319027585148
 21
1816.7797680339881
  0
LINE
  8
_0-2_
  6
CONTINUOUS
 62
    3
 10
5172.3319027585148
 20
1816.7797680339881
 11
5172.4881500985684
 21
1816.6348829496351
  0
LINE
  8
_0-2_
  6
CONTINUOUS
 62
    3
 10
5172.4881500985684
 20
1816.6348829496351
 11
5172.6442283523083
 21
1816.4904650617052
  0
LINE
  8
_0-2_
  6
CONTINUOUS
 62
    3
 10
5172.6442283523083
 20
1816.4904650617052
 11
5172.8001375197346
 21
1816.3465143701981
  0
LINE
  8
_0-2_
  6
CONTINUOUS
 62
    3
 10
5172.8001375197346
 20
1816.3465143701981
 11
5172.955877600848
 21
1816.2030308751141
  0
LINE
  8
_0-2_
  6
CONTINUOUS
 62
    3
 10
5172.955877600848
 20
1816.2030308751141
 11
5173.1114485956468
 21
1816.0600145764531
  0
LINE
  8
_0-2_
  6
CONTINUOUS
 62
    3
 10
5173.1114485956468
 20
1816.0600145764531
 11
5173.2668505041338
 21
1815.9174654742151
  0
LINE
  8
_0-2_
  6
CONTINUOUS
 62
    3
 10
5173.2668505041338
 20
1815.9174654742151
 11
5173.4220833263062
 21
1815.7753835684
  0
LINE
  8
_0-2_
  6
CONTINUOUS
 62
    3
 10
5173.4220833263062
 20
1815.7753835684
 11
5173.5771470621676
 21
1815.6337688590077
  0
LINE
  8
_0-2_
  6
CONTINUOUS
 62
    3
 10
5173.5771470621676
 20
1815.6337688590077
 11
5173.7320417117144
 21
1815.4926213460385
  0
LINE
  8
_0-2_
  6
CONTINUOUS
 62
    3
 10
5173.7320417117144
 20
1815.4926213460385
 11
5173.8867672749484
 21
1815.3519410294925
  0
LINE
  8
_0-2_
  6
CONTINUOUS
 62
    3
 10
5173.8867672749484
 20
1815.3519410294925
 11
5174.0413237518696
 21
1815.2117279093693
  0
LINE
  8
_0-2_
  6
CONTINUOUS
 62
    3
 10
5174.0413237518696
 20
1815.2117279093693
 11
5174.1957111424754
 21
1815.0719819856693
  0
LINE
  8
_0-2_
  6
CONTINUOUS
 62
    3
 10
5174.1957111424754
 20
1815.0719819856693
 11
5174.3499294467701
 21
1814.9327032583919
  0
LINE
  8
_0-2_
  6
CONTINUOUS
 62
    3
 10
5174.3499294467701
 20
1814.9327032583919
 11
5174.5039786647512
 21
1814.7938917275378
  0
LINE
  8
_0-2_
  6
CONTINUOUS
 62
    3
 10
5174.5039786647512
 20
1814.7938917275378
 11
5174.6578587964186
 21
1814.6555473931064
  0
LINE
  8
_0-2_
  6
CONTINUOUS
 62
    3
 10
5174.6578587964186
 20
1814.6555473931064
 11
5174.8115698417723
 21
1814.517670255098
  0
LINE
  8
_0-2_
  6
CONTINUOUS
 62
    3
 10
5174.8115698417723
 20
1814.517670255098
 11
5174.9651118008132
 21
1814.3802603135127
  0
LINE
  8
_0-2_
  6
CONTINUOUS
 62
    3
 10
5174.9651118008132
 20
1814.3802603135127
 11
5175.1184846735414
 21
1814.2433175683507
  0
LINE
  8
_0-2_
  6
CONTINUOUS
 62
    3
 10
5175.1184846735414
 20
1814.2433175683507
 11
5175.2716884599567
 21
1814.1068420196116
  0
LINE
  8
_0-2_
  6
CONTINUOUS
 62
    3
 10
5175.2716884599567
 20
1814.1068420196116
 11
5175.4247231600584
 21
1813.970833667295
  0
LINE
  8
_0-2_
  6
CONTINUOUS
 62
    3
 10
5175.4247231600584
 20
1813.970833667295
 11
5175.5775887738473
 21
1813.8352925114018
  0
LINE
  8
_0-2_
  6
CONTINUOUS
 62
    3
 10
5175.5775887738473
 20
1813.8352925114018
 11
5175.7302853013225
 21
1813.7002185519314
  0
LINE
  8
_0-2_
  6
CONTINUOUS
 62
    3
 10
5175.7302853013225
 20
1813.7002185519314
 11
5175.8828127424831
 21
1813.5656117888839
  0
LINE
  8
_0-2_
  6
CONTINUOUS
 62
    3
 10
5175.8828127424831
 20
1813.5656117888839
 11
5176.0351710973318
 21
1813.4314722222596
  0
LINE
  8
_0-2_
  6
CONTINUOUS
 62
    3
 10
5176.0351710973318
 20
1813.4314722222596
 11
5176.1873603658669
 21
1813.2977998520582
  0
LINE
  8
_0-2_
  6
CONTINUOUS
 62
    3
 10
5176.1873603658669
 20
1813.2977998520582
 11
5176.3393805480891
 21
1813.1645946782796
  0
LINE
  8
_0-2_
  6
CONTINUOUS
 62
    3
 10
5176.3393805480891
 20
1813.1645946782796
 11
5176.4912316439968
 21
1813.0318567009244
  0
LINE
  8
_0-2_
  6
CONTINUOUS
 62
    3
 10
5176.4912316439968
 20
1813.0318567009244
 11
5176.6429136535935
 21
1812.8995859199918
  0
LINE
  8
_0-2_
  6
CONTINUOUS
 62
    3
 10
5176.6429136535935
 20
1812.8995859199918
 11
5176.7944265768756
 21
1812.7677823354825
  0
LINE
  8
_0-2_
  6
CONTINUOUS
 62
    3
 10
5176.7944265768756
 20
1812.7677823354825
 11
5176.9457704138449
 21
1812.6364459473959
  0
LINE
  8
_0-2_
  6
CONTINUOUS
 62
    3
 10
5176.9457704138449
 20
1812.6364459473959
 11
5177.0969451645014
 21
1812.5055767557321
  0
LINE
  8
_0-2_
  6
CONTINUOUS
 62
    3
 10
5177.0969451645014
 20
1812.5055767557321
 11
5177.2479508288434
 21
1812.3751747604915
  0
LINE
  8
_0-2_
  6
CONTINUOUS
 62
    3
 10
5177.2479508288434
 20
1812.3751747604915
 11
5177.3987874068735
 21
1812.2452399616741
  0
LINE
  8
_0-2_
  6
CONTINUOUS
 62
    3
 10
5177.3987874068735
 20
1812.2452399616741
 11
5177.5494548985898
 21
1812.1157723592796
  0
LINE
  8
_0-2_
  6
CONTINUOUS
 62
    3
 10
5177.5494548985898
 20
1812.1157723592796
 11
5177.6999533039925
 21
1811.9867719533079
  0
LINE
  8
_0-2_
  6
CONTINUOUS
 62
    3
 10
5177.6999533039925
 20
1811.9867719533079
 11
5177.8502826230815
 21
1811.8582387437593
  0
LINE
  8
_0-2_
  6
CONTINUOUS
 62
    3
 10
5177.8502826230815
 20
1811.8582387437593
 11
5178.0004428558586
 21
1811.7301727306337
  0
LINE
  8
_0-2_
  6
CONTINUOUS
 62
    3
 10
5178.0004428558586
 20
1811.7301727306337
 11
5178.1504340023221
 21
1811.6025739139309
  0
LINE
  8
_0-2_
  6
CONTINUOUS
 62
    3
 10
5178.1504340023221
 20
1811.6025739139309
 11
5178.3002560624718
 21
1811.4754422936514
  0
LINE
  8
_0-2_
  6
CONTINUOUS
 62
    3
 10
5178.3002560624718
 20
1811.4754422936514
 11
5178.4499090363088
 21
1811.3487778697947
  0
LINE
  8
_0-2_
  6
CONTINUOUS
 62
    3
 10
5178.4499090363088
 20
1811.3487778697947
 11
5178.599392923833
 21
1811.222580642361
  0
LINE
  8
_0-2_
  6
CONTINUOUS
 62
    3
 10
5178.599392923833
 20
1811.222580642361
 11
5178.7487077250426
 21
1811.0968506113502
  0
LINE
  8
_0-2_
  6
CONTINUOUS
 62
    3
 10
5178.7487077250426
 20
1811.0968506113502
 11
5178.8978534399403
 21
1810.9715877767624
  0
LINE
  8
_0-2_
  6
CONTINUOUS
 62
    3
 10
5178.8978534399403
 20
1810.9715877767624
 11
5179.0468300685234
 21
1810.8467921385977
  0
LINE
  8
_0-2_
  6
CONTINUOUS
 62
    3
 10
5179.0468300685234
 20
1810.8467921385977
 11
5179.1956376107937
 21
1810.7224636968558
  0
LINE
  8
_0-2_
  6
CONTINUOUS
 62
    3
 10
5179.1956376107937
 20
1810.7224636968558
 11
5179.3442760667513
 21
1810.5986024515371
  0
LINE
  8
_0-2_
  6
CONTINUOUS
 62
    3
 10
5179.3442760667513
 20
1810.5986024515371
 11
5179.492745436396
 21
1810.4752084026413
  0
LINE
  8
_0-2_
  6
CONTINUOUS
 62
    3
 10
5179.492745436396
 20
1810.4752084026413
 11
5179.6410457197271
 21
1810.3522815501685
  0
LINE
  8
_0-2_
  6
CONTINUOUS
 62
    3
 10
5179.6410457197271
 20
1810.3522815501685
 11
5179.7891769167454
 21
1810.2298218941187
  0
LINE
  8
_0-2_
  6
CONTINUOUS
 62
    3
 10
5179.7891769167454
 20
1810.2298218941187
 11
5179.9369595387525
 21
1810.1082260995404
  0
LINE
  8
_0-2_
  6
CONTINUOUS
 62
    3
 10
5179.9369595387525
 20
1810.1082260995404
 11
5180.0842140970462
 21
1809.9878908314815
  0
LINE
  8
_0-2_
  6
CONTINUOUS
 62
    3
 10
5180.0842140970462
 20
1809.9878908314815
 11
5180.2309405916294
 21
1809.8688160899426
  0
LINE
  8
_0-2_
  6
CONTINUOUS
 62
    3
 10
5180.2309405916294
 20
1809.8688160899426
 11
5180.3771390225038
 21
1809.7510018749233
  0
LINE
  8
_0-2_
  6
CONTINUOUS
 62
    3
 10
5180.3771390225038
 20
1809.7510018749233
 11
5180.5228093896667
 21
1809.6344481864242
  0
LINE
  8
_0-2_
  6
CONTINUOUS
 62
    3
 10
5180.5228093896667
 20
1809.6344481864242
 11
5180.6679516931181
 21
1809.5191550244444
  0
LINE
  8
_0-2_
  6
CONTINUOUS
 62
    3
 10
5180.6679516931181
 20
1809.5191550244444
 11
5180.812565932858
 21
1809.4051223889846
  0
LINE
  8
_0-2_
  6
CONTINUOUS
 62
    3
 10
5180.812565932858
 20
1809.4051223889846
 11
5180.9566521088891
 21
1809.2923502800445
  0
LINE
  8
_0-2_
  6
CONTINUOUS
 62
    3
 10
5180.9566521088891
 20
1809.2923502800445
 11
5181.1002102212096
 21
1809.1808386976243
  0
LINE
  8
_0-2_
  6
CONTINUOUS
 62
    3
 10
5181.1002102212096
 20
1809.1808386976243
 11
5181.2432402698159
 21
1809.0705876417237
  0
LINE
  8
_0-2_
  6
CONTINUOUS
 62
    3
 10
5181.2432402698159
 20
1809.0705876417237
 11
5181.3857422547144
 21
1808.9615971123428
  0
LINE
  8
_0-2_
  6
CONTINUOUS
 62
    3
 10
5181.3857422547144
 20
1808.9615971123428
 11
5181.5277161759013
 21
1808.8538671094818
  0
LINE
  8
_0-2_
  6
CONTINUOUS
 62
    3
 10
5181.5277161759013
 20
1808.8538671094818
 11
5181.6691620333777
 21
1808.7473976331407
  0
LINE
  8
_0-2_
  6
CONTINUOUS
 62
    3
 10
5181.6691620333777
 20
1808.7473976331407
 11
5181.8100798271425
 21
1808.6421886833193
  0
LINE
  8
_0-2_
  6
CONTINUOUS
 62
    3
 10
5181.8100798271425
 20
1808.6421886833193
 11
5181.9504695571977
 21
1808.5382402600176
  0
LINE
  8
_0-2_
  6
CONTINUOUS
 62
    3
 10
5181.9504695571977
 20
1808.5382402600176
 11
5182.0903312235423
 21
1808.4355523632357
  0
LINE
  8
_0-2_
  6
CONTINUOUS
 62
    3
 10
5182.0903312235423
 20
1808.4355523632357
 11
5182.2296648261745
 21
1808.3341249929733
  0
LINE
  8
_0-2_
  6
CONTINUOUS
 62
    3
 10
5182.2296648261745
 20
1808.3341249929733
 11
5182.3684703650961
 21
1808.2339581492311
  0
LINE
  8
_0-2_
  6
CONTINUOUS
 62
    3
 10
5182.3684703650961
 20
1808.2339581492311
 11
5182.506747840308
 21
1808.1350518320085
  0
LINE
  8
_0-2_
  6
CONTINUOUS
 62
    3
 10
5182.506747840308
 20
1808.1350518320085
 11
5182.6444972518084
 21
1808.0374060413058
  0
LINE
  8
_0-2_
  6
CONTINUOUS
 62
    3
 10
5182.6444972518084
 20
1808.0374060413058
 11
5182.7817185995982
 21
1807.9410207771227
  0
LINE
  8
_0-2_
  6
CONTINUOUS
 62
    3
 10
5182.7817185995982
 20
1807.9410207771227
 11
5182.9184118836765
 21
1807.8458960394594
  0
LINE
  8
_0-2_
  6
CONTINUOUS
 62
    3
 10
5182.9184118836765
 20
1807.8458960394594
 11
5183.0545771040443
 21
1807.7520318283157
  0
LINE
  8
_0-2_
  6
CONTINUOUS
 62
    3
 10
5183.0545771040443
 20
1807.7520318283157
 11
5183.1902142607023
 21
1807.6594281436924
  0
LINE
  8
_0-2_
  6
CONTINUOUS
 62
    3
 10
5183.1902142607023
 20
1807.6594281436924
 11
5183.3253233536479
 21
1807.5680849855883
  0
LINE
  8
_0-2_
  6
CONTINUOUS
 62
    3
 10
5183.3253233536479
 20
1807.5680849855883
 11
5183.4599043828839
 21
1807.478002354004
  0
LINE
  8
_0-2_
  6
CONTINUOUS
 62
    3
 10
5183.4599043828839
 20
1807.478002354004
 11
5183.5939573484102
 21
1807.3891802489397
  0
LINE
  8
_0-2_
  6
CONTINUOUS
 62
    3
 10
5183.5939573484102
 20
1807.3891802489397
 11
5183.7274822502231
 21
1807.3016186703949
  0
LINE
  8
_0-2_
  6
CONTINUOUS
 62
    3
 10
5183.7274822502231
 20
1807.3016186703949
 11
5183.8604790883264
 21
1807.2153176183699
  0
LINE
  8
_0-2_
  6
CONTINUOUS
 62
    3
 10
5183.8604790883264
 20
1807.2153176183699
 11
5183.9929478627182
 21
1807.1302770928648
  0
LINE
  8
_0-2_
  6
CONTINUOUS
 62
    3
 10
5183.9929478627182
 20
1807.1302770928648
 11
5184.1248885734003
 21
1807.0464970938795
  0
LINE
  8
_0-2_
  6
CONTINUOUS
 62
    3
 10
5184.1248885734003
 20
1807.0464970938795
 11
5184.2563012203709
 21
1806.963977621414
  0
LINE
  8
_0-2_
  6
CONTINUOUS
 62
    3
 10
5184.2563012203709
 20
1806.963977621414
 11
5184.3871858036309
 21
1806.8827186754684
  0
LINE
  8
_0-2_
  6
CONTINUOUS
 62
    3
 10
5184.3871858036309
 20
1806.8827186754684
 11
5184.5175423231794
 21
1806.802720256042
  0
LINE
  8
_0-2_
  6
CONTINUOUS
 62
    3
 10
5184.5175423231794
 20
1806.802720256042
 11
5184.6473707790192
 21
1806.723982363136
  0
LINE
  8
_0-2_
  6
CONTINUOUS
 62
    3
 10
5184.6473707790192
 20
1806.723982363136
 11
5184.7766711711465
 21
1806.6465049967494
  0
LINE
  8
_0-2_
  6
CONTINUOUS
 62
    3
 10
5184.7766711711465
 20
1806.6465049967494
 11
5184.9054434995633
 21
1806.5702881568827
  0
LINE
  8
_0-2_
  6
CONTINUOUS
 62
    3
 10
5184.9054434995633
 20
1806.5702881568827
 11
5185.0336877642694
 21
1806.4953318435357
  0
LINE
  8
_0-2_
  6
CONTINUOUS
 62
    3
 10
5185.0336877642694
 20
1806.4953318435357
 11
5185.161403965265
 21
1806.4216360567084
  0
LINE
  8
_0-2_
  6
CONTINUOUS
 62
    3
 10
5185.161403965265
 20
1806.4216360567084
 11
5185.2885921025481
 21
1806.3492007964012
  0
LINE
  8
_0-2_
  6
CONTINUOUS
 62
    3
 10
5185.2885921025481
 20
1806.3492007964012
 11
5185.4152521761216
 21
1806.2780260626137
  0
LINE
  8
_0-2_
  6
CONTINUOUS
 62
    3
 10
5185.4152521761216
 20
1806.2780260626137
 11
5185.5413841859845
 21
1806.2081118553456
  0
LINE
  8
_0-2_
  6
CONTINUOUS
 62
    3
 10
5185.5413841859845
 20
1806.2081118553456
 11
5185.6669881321359
 21
1806.1394581745976
  0
LINE
  8
_0-2_
  6
CONTINUOUS
 62
    3
 10
5185.6669881321359
 20
1806.1394581745976
 11
5185.7920640145776
 21
1806.0720650203691
  0
LINE
  8
_0-2_
  6
CONTINUOUS
 62
    3
 10
5185.7920640145776
 20
1806.0720650203691
 11
5185.9166118333087
 21
1806.005932392661
  0
LINE
  8
_0-2_
  6
CONTINUOUS
 62
    3
 10
5185.9166118333087
 20
1806.005932392661
 11
5186.0406315883283
 21
1805.9410602914722
  0
LINE
  8
_0-2_
  6
CONTINUOUS
 62
    3
 10
5186.0406315883283
 20
1805.9410602914722
 11
5186.1641232796364
 21
1805.877448716803
  0
LINE
  8
_0-2_
  6
CONTINUOUS
 62
    3
 10
5186.1641232796364
 20
1805.877448716803
 11
5186.287086907234
 21
1805.8150976686536
  0
LINE
  8
_0-2_
  6
CONTINUOUS
 62
    3
 10
5186.287086907234
 20
1805.8150976686536
 11
5186.4095224711218
 21
1805.7540071470244
  0
LINE
  8
_0-2_
  6
CONTINUOUS
 62
    3
 10
5186.4095224711218
 20
1805.7540071470244
 11
5186.5314299712991
 21
1805.6941771519146
  0
LINE
  8
_0-2_
  6
CONTINUOUS
 62
    3
 10
5186.5314299712991
 20
1805.6941771519146
 11
5186.6528094077639
 21
1805.6356076833249
  0
LINE
  8
_0-2_
  6
CONTINUOUS
 62
    3
 10
5186.6528094077639
 20
1805.6356076833249
 11
5186.7736607805182
 21
1805.5782987412545
  0
LINE
  8
_0-2_
  6
CONTINUOUS
 62
    3
 10
5186.7736607805182
 20
1805.5782987412545
 11
5186.8939840895619
 21
1805.5222503257041
  0
LINE
  8
_0-2_
  6
CONTINUOUS
 62
    3
 10
5186.8939840895619
 20
1805.5222503257041
 11
5187.0137793348949
 21
1805.4674624366737
  0
LINE
  8
_0-2_
  6
CONTINUOUS
 62
    3
 10
5187.0137793348949
 20
1805.4674624366737
 11
5187.1330465165174
 21
1805.4139350741627
  0
LINE
  8
_0-2_
  6
CONTINUOUS
 62
    3
 10
5187.1330465165174
 20
1805.4139350741627
 11
5187.2517856344293
 21
1805.3616682381717
  0
LINE
  8
_0-2_
  6
CONTINUOUS
 62
    3
 10
5187.2517856344293
 20
1805.3616682381717
 11
5187.3699966886297
 21
1805.3106619287005
  0
LINE
  8
_0-2_
  6
CONTINUOUS
 62
    3
 10
5187.3699966886297
 20
1805.3106619287005
 11
5187.4876796791195
 21
1805.2609161457488
  0
LINE
  8
_0-2_
  6
CONTINUOUS
 62
    3
 10
5187.4876796791195
 20
1805.2609161457488
 11
5187.6048346058988
 21
1805.2124308893169
  0
LINE
  8
_0-2_
  6
CONTINUOUS
 62
    3
 10
5187.6048346058988
 20
1805.2124308893169
 11
5187.7214614689656
 21
1805.1652061594052
  0
LINE
  8
_0-2_
  6
CONTINUOUS
 62
    3
 10
5187.7214614689656
 20
1805.1652061594052
 11
5187.8375602683245
 21
1805.119241956013
  0
LINE
  8
_0-2_
  6
CONTINUOUS
 62
    3
 10
5187.8375602683245
 20
1805.119241956013
 11
5187.9531310039711
 21
1805.0745382791406
  0
LINE
  8
_0-2_
  6
CONTINUOUS
 62
    3
 10
5187.9531310039711
 20
1805.0745382791406
 11
5188.068173675907
 21
1805.0310951287879
  0
LINE
  8
_0-2_
  6
CONTINUOUS
 62
    3
 10
5188.068173675907
 20
1805.0310951287879
 11
5188.1826882841324
 21
1804.9889125049549
  0
LINE
  8
_0-2_
  6
CONTINUOUS
 62
    3
 10
5188.1826882841324
 20
1804.9889125049549
 11
5188.296989206975
 21
1804.9476798894104
  0
LINE
  8
_0-2_
  6
CONTINUOUS
 62
    3
 10
5188.296989206975
 20
1804.9476798894104
 11
5188.4113908227664
 21
1804.9070867639236
  0
LINE
  8
_0-2_
  6
CONTINUOUS
 62
    3
 10
5188.4113908227664
 20
1804.9070867639236
 11
5188.5258931315047
 21
1804.8671331284938
  0
LINE
  8
_0-2_
  6
CONTINUOUS
 62
    3
 10
5188.5258931315047
 20
1804.8671331284938
 11
5188.6404961331918
 21
1804.8278189831217
  0
LINE
  8
_0-2_
  6
CONTINUOUS
 62
    3
 10
5188.6404961331918
 20
1804.8278189831217
 11
5188.7551998278241
 21
1804.7891443278068
  0
LINE
  8
_0-2_
  6
CONTINUOUS
 62
    3
 10
5188.7551998278241
 20
1804.7891443278068
 11
5188.8700042154051
 21
1804.7511091625488
  0
LINE
  8
_0-2_
  6
CONTINUOUS
 62
    3
 10
5188.8700042154051
 20
1804.7511091625488
 11
5188.984909295933
 21
1804.7137134873487
  0
LINE
  8
_0-2_
  6
CONTINUOUS
 62
    3
 10
5188.984909295933
 20
1804.7137134873487
 11
5189.0999150694097
 21
1804.6769573022057
  0
LINE
  8
_0-2_
  6
CONTINUOUS
 62
    3
 10
5189.0999150694097
 20
1804.6769573022057
 11
5189.2150215358324
 21
1804.64084060712
  0
LINE
  8
_0-2_
  6
CONTINUOUS
 62
    3
 10
5189.2150215358324
 20
1804.64084060712
 11
5189.330228695203
 21
1804.6053634020916
  0
LINE
  8
_0-2_
  6
CONTINUOUS
 62
    3
 10
5189.330228695203
 20
1804.6053634020916
 11
5189.4455365475224
 21
1804.5705256871206
  0
LINE
  8
_0-2_
  6
CONTINUOUS
 62
    3
 10
5189.4455365475224
 20
1804.5705256871206
 11
5189.5609450927877
 21
1804.5363274622071
  0
LINE
  8
_0-2_
  6
CONTINUOUS
 62
    3
 10
5189.5609450927877
 20
1804.5363274622071
 11
5189.676454331001
 21
1804.5027687273505
  0
LINE
  8
_0-2_
  6
CONTINUOUS
 62
    3
 10
5189.676454331001
 20
1804.5027687273505
 11
5189.792064262163
 21
1804.4698494825516
  0
LINE
  8
_0-2_
  6
CONTINUOUS
 62
    3
 10
5189.792064262163
 20
1804.4698494825516
 11
5189.9077748862701
 21
1804.4375697278101
  0
LINE
  8
_0-2_
  6
CONTINUOUS
 62
    3
 10
5189.9077748862701
 20
1804.4375697278101
 11
5190.023586203326
 21
1804.4059294631259
  0
LINE
  8
_0-2_
  6
CONTINUOUS
 62
    3
 10
5190.023586203326
 20
1804.4059294631259
 11
5190.1394982133297
 21
1804.3749286884988
  0
LINE
  8
_0-2_
  6
CONTINUOUS
 62
    3
 10
5190.1394982133297
 20
1804.3749286884988
 11
5190.2555109162813
 21
1804.3445674039294
  0
LINE
  8
_0-2_
  6
CONTINUOUS
 62
    3
 10
5190.2555109162813
 20
1804.3445674039294
 11
5190.3716243121789
 21
1804.314845609417
  0
LINE
  8
_0-2_
  6
CONTINUOUS
 62
    3
 10
5190.3716243121789
 20
1804.314845609417
 11
5190.4878384010244
 21
1804.2857633049618
  0
LINE
  8
_0-2_
  6
CONTINUOUS
 62
    3
 10
5190.4878384010244
 20
1804.2857633049618
 11
5190.6041531828196
 21
1804.2573204905643
  0
LINE
  8
_0-2_
  6
CONTINUOUS
 62
    3
 10
5190.6041531828196
 20
1804.2573204905643
 11
5190.7205686575599
 21
1804.229517166224
  0
LINE
  8
_0-2_
  6
CONTINUOUS
 62
    3
 10
5190.7205686575599
 20
1804.229517166224
 11
5190.837084825248
 21
1804.2023533319411
  0
LINE
  8
_0-2_
  6
CONTINUOUS
 62
    3
 10
5190.837084825248
 20
1804.2023533319411
 11
5190.953701685884
 21
1804.1758289877155
  0
LINE
  8
_0-2_
  6
CONTINUOUS
 62
    3
 10
5190.953701685884
 20
1804.1758289877155
 11
5191.0704192394669
 21
1804.1499441335473
  0
LINE
  8
_0-2_
  6
CONTINUOUS
 62
    3
 10
5191.0704192394669
 20
1804.1499441335473
 11
5191.1872374859977
 21
1804.1246987694362
  0
LINE
  8
_0-2_
  6
CONTINUOUS
 62
    3
 10
5191.1872374859977
 20
1804.1246987694362
 11
5191.3041564254763
 21
1804.1000928953827
  0
LINE
  8
_0-2_
  6
CONTINUOUS
 62
    3
 10
5191.3041564254763
 20
1804.1000928953827
 11
5191.4211760579028
 21
1804.0761265113863
  0
LINE
  8
_0-2_
  6
CONTINUOUS
 62
    3
 10
5191.4211760579028
 20
1804.0761265113863
 11
5191.5382963832762
 21
1804.0527996174476
  0
LINE
  8
_0-2_
  6
CONTINUOUS
 62
    3
 10
5191.5382963832762
 20
1804.0527996174476
 11
5191.6555174015966
 21
1804.0301122135659
  0
LINE
  8
_0-2_
  6
CONTINUOUS
 62
    3
 10
5191.6555174015966
 20
1804.0301122135659
 11
5191.7728391128649
 21
1804.0080642997416
  0
LINE
  8
_0-2_
  6
CONTINUOUS
 62
    3
 10
5191.7728391128649
 20
1804.0080642997416
 11
5191.8902615170819
 21
1803.9866558759745
  0
LINE
  8
_0-2_
  6
CONTINUOUS
 62
    3
 10
5191.8902615170819
 20
1803.9866558759745
 11
5192.0077846142449
 21
1803.9658869422651
  0
LINE
  8
_0-2_
  6
CONTINUOUS
 62
    3
 10
5192.0077846142449
 20
1803.9658869422651
 11
5192.1254084043558
 21
1803.9457574986131
  0
LINE
  8
_0-2_
  6
CONTINUOUS
 62
    3
 10
5192.1254084043558
 20
1803.9457574986131
 11
5192.2431328874145
 21
1803.9262675450182
  0
LINE
  8
_0-2_
  6
CONTINUOUS
 62
    3
 10
5192.2431328874145
 20
1803.9262675450182
 11
5192.3609580634202
 21
1803.9074170814806
  0
LINE
  8
_0-2_
  6
CONTINUOUS
 62
    3
 10
5192.3609580634202
 20
1803.9074170814806
 11
5192.4788839323728
 21
1803.8892061080003
  0
LINE
  8
_0-2_
  6
CONTINUOUS
 62
    3
 10
5192.4788839323728
 20
1803.8892061080003
 11
5192.5969104942742
 21
1803.8716346245772
  0
LINE
  8
_0-2_
  6
CONTINUOUS
 62
    3
 10
5192.5969104942742
 20
1803.8716346245772
 11
5192.7150377491225
 21
1803.8547026312117
  0
LINE
  8
_0-2_
  6
CONTINUOUS
 62
    3
 10
5192.7150377491225
 20
1803.8547026312117
 11
5192.8332656969187
 21
1803.8384101279034
  0
LINE
  8
_0-2_
  6
CONTINUOUS
 62
    3
 10
5192.8332656969187
 20
1803.8384101279034
 11
5192.9515943376628
 21
1803.8227571146526
  0
LINE
  8
_0-2_
  6
CONTINUOUS
 62
    3
 10
5192.9515943376628
 20
1803.8227571146526
 11
5193.0700236713537
 21
1803.807743591459
  0
LINE
  8
_0-2_
  6
CONTINUOUS
 62
    3
 10
5193.0700236713537
 20
1803.807743591459
 11
5193.1885536979917
 21
1803.7933695583229
  0
LINE
  8
_0-2_
  6
CONTINUOUS
 62
    3
 10
5193.1885536979917
 20
1803.7933695583229
 11
5193.3071844175793
 21
1803.7796350152439
  0
LINE
  8
_0-2_
  6
CONTINUOUS
 62
    3
 10
5193.3071844175793
 20
1803.7796350152439
 11
5193.425915830112
 21
1803.7665399622224
  0
LINE
  8
_0-2_
  6
CONTINUOUS
 62
    3
 10
5193.425915830112
 20
1803.7665399622224
 11
5193.5447479355926
 21
1803.7540843992583
  0
LINE
  8
_0-2_
  6
CONTINUOUS
 62
    3
 10
5193.5447479355926
 20
1803.7540843992583
 11
5193.663680734021
 21
1803.7422683263512
  0
LINE
  8
_0-2_
  6
CONTINUOUS
 62
    3
 10
5193.663680734021
 20
1803.7422683263512
 11
5193.7827142253973
 21
1803.7310917435016
  0
LINE
  8
_0-2_
  6
CONTINUOUS
 62
    3
 10
5193.7827142253973
 20
1803.7310917435016
 11
5193.9018484097196
 21
1803.7205546507096
  0
LINE
  8
_0-2_
  6
CONTINUOUS
 62
    3
 10
5193.9018484097196
 20
1803.7205546507096
 11
5194.0210832869907
 21
1803.7106570479748
  0
LINE
  8
_0-2_
  6
CONTINUOUS
 62
    3
 10
5194.0210832869907
 20
1803.7106570479748
 11
5194.1404188572096
 21
1803.7013989352972
  0
LINE
  8
_0-2_
  6
CONTINUOUS
 62
    3
 10
5194.1404188572096
 20
1803.7013989352972
 11
5194.2598551203755
 21
1803.6927803126769
  0
LINE
  8
_0-2_
  6
CONTINUOUS
 62
    3
 10
5194.2598551203755
 20
1803.6927803126769
 11
5194.3793920764892
 21
1803.6848011801139
  0
LINE
  8
_0-2_
  6
CONTINUOUS
 62
    3
 10
5194.3793920764892
 20
1803.6848011801139
 11
5194.4990297255499
 21
1803.6774615376087
  0
LINE
  8
_0-2_
  6
CONTINUOUS
 62
    3
 10
5194.4990297255499
 20
1803.6774615376087
 11
5194.6187680675584
 21
1803.6707613851604
  0
LINE
  8
_0-2_
  6
CONTINUOUS
 62
    3
 10
5194.6187680675584
 20
1803.6707613851604
 11
5194.7386071025139
 21
1803.6647007227693
  0
LINE
  8
_0-2_
  6
CONTINUOUS
 62
    3
 10
5194.7386071025139
 20
1803.6647007227693
 11
5194.8585468304182
 21
1803.6592795504359
  0
LINE
  8
_0-2_
  6
CONTINUOUS
 62
    3
 10
5194.8585468304182
 20
1803.6592795504359
 11
5194.9785872512693
 21
1803.65449786816
  0
LINE
  8
_0-2_
  6
CONTINUOUS
 62
    3
 10
5194.9785872512693
 20
1803.65449786816
 11
5195.0987283650666
 21
1803.650355675941
  0
LINE
  8
_0-2_
  6
CONTINUOUS
 62
    3
 10
5195.0987283650666
 20
1803.650355675941
 11
5195.2189701718135
 21
1803.6468529737795
  0
LINE
  8
_0-2_
  6
CONTINUOUS
 62
    3
 10
5195.2189701718135
 20
1803.6468529737795
 11
5195.3393126715055
 21
1803.6439897616754
  0
LINE
  8
_0-2_
  6
CONTINUOUS
 62
    3
 10
5195.3393126715055
 20
1803.6439897616754
 11
5195.4597558641481
 21
1803.6417660396285
  0
LINE
  8
_0-2_
  6
CONTINUOUS
 62
    3
 10
5195.4597558641481
 20
1803.6417660396285
 11
5195.5802997497358
 21
1803.640181807639
  0
LINE
  8
_0-2_
  6
CONTINUOUS
 62
    3
 10
5195.5802997497358
 20
1803.640181807639
 11
5195.7009443282723
 21
1803.6392370657068
  0
LINE
  8
_0-2_
  6
CONTINUOUS
 62
    3
 10
5195.7009443282723
 20
1803.6392370657068
 11
5195.821683825332
 21
1803.6388929709049
  0
LINE
  8
_0-2_
  6
CONTINUOUS
 62
    3
 10
5195.821683825332
 20
1803.6388929709049
 11
5195.9425124664913
 21
1803.6391106803057
  0
LINE
  8
_0-2_
  6
CONTINUOUS
 62
    3
 10
5195.9425124664913
 20
1803.6391106803057
 11
5196.0634302517519
 21
1803.6398901939101
  0
LINE
  8
_0-2_
  6
CONTINUOUS
 62
    3
 10
5196.0634302517519
 20
1803.6398901939101
 11
5196.1844371811112
 21
1803.641231511717
  0
LINE
  8
_0-2_
  6
CONTINUOUS
 62
    3
 10
5196.1844371811112
 20
1803.641231511717
 11
5196.3055332545709
 21
1803.643134633727
  0
LINE
  8
_0-2_
  6
CONTINUOUS
 62
    3
 10
5196.3055332545709
 20
1803.643134633727
 11
5196.4267184721302
 21
1803.6455995599399
  0
LINE
  8
_0-2_
  6
CONTINUOUS
 62
    3
 10
5196.4267184721302
 20
1803.6455995599399
 11
5196.5479928337891
 21
1803.6486262903559
  0
LINE
  8
_0-2_
  6
CONTINUOUS
 62
    3
 10
5196.5479928337891
 20
1803.6486262903559
 11
5196.6693563395493
 21
1803.6522148249753
  0
LINE
  8
_0-2_
  6
CONTINUOUS
 62
    3
 10
5196.6693563395493
 20
1803.6522148249753
 11
5196.790808989409
 21
1803.6563651637973
  0
LINE
  8
_0-2_
  6
CONTINUOUS
 62
    3
 10
5196.790808989409
 20
1803.6563651637973
 11
5196.9123507833683
 21
1803.6610773068223
  0
LINE
  8
_0-2_
  6
CONTINUOUS
 62
    3
 10
5196.9123507833683
 20
1803.6610773068223
 11
5197.0339817214281
 21
1803.6663512540506
  0
LINE
  8
_0-2_
  6
CONTINUOUS
 62
    3
 10
5197.0339817214281
 20
1803.6663512540506
 11
5197.1557018035874
 21
1803.6721870054816
  0
LINE
  8
_0-2_
  6
CONTINUOUS
 62
    3
 10
5197.1557018035874
 20
1803.6721870054816
 11
5197.2775110298471
 21
1803.6785845611157
  0
LINE
  8
_0-2_
  6
CONTINUOUS
 62
    3
 10
5197.2775110298471
 20
1803.6785845611157
 11
5197.3994094002064
 21
1803.685543920953
  0
LINE
  8
_0-2_
  6
CONTINUOUS
 62
    3
 10
5197.3994094002064
 20
1803.685543920953
 11
5197.5213969146662
 21
1803.6930650849933
  0
LINE
  8
_0-2_
  6
CONTINUOUS
 62
    3
 10
5197.5213969146662
 20
1803.6930650849933
 11
5197.6434735732255
 21
1803.7011480532365
  0
LINE
  8
_0-2_
  6
CONTINUOUS
 62
    3
 10
5197.6434735732255
 20
1803.7011480532365
 11
5197.7656393758843
 21
1803.7097928256826
  0
LINE
  8
_0-2_
  6
CONTINUOUS
 62
    3
 10
5197.7656393758843
 20
1803.7097928256826
 11
5197.8878943226437
 21
1803.718999402332
  0
LINE
  8
_0-2_
  6
CONTINUOUS
 62
    3
 10
5197.8878943226437
 20
1803.718999402332
 11
5198.0102384135034
 21
1803.7287677831841
  0
LINE
  8
_0-2_
  6
CONTINUOUS
 62
    3
 10
5198.0102384135034
 20
1803.7287677831841
 11
5198.1326716484627
 21
1803.7390979682393
  0
LINE
  8
_0-2_
  6
CONTINUOUS
 62
    3
 10
5198.1326716484627
 20
1803.7390979682393
 11
5198.2551940275225
 21
1803.7499899574977
  0
LINE
  8
_0-2_
  6
CONTINUOUS
 62
    3
 10
5198.2551940275225
 20
1803.7499899574977
 11
5198.3778055506809
 21
1803.761443750959
  0
LINE
  8
_0-2_
  6
CONTINUOUS
 62
    3
 10
5198.3778055506809
 20
1803.761443750959
 11
5198.5005062179407
 21
1803.7734593486232
  0
LINE
  8
_0-2_
  6
CONTINUOUS
 62
    3
 10
5198.5005062179407
 20
1803.7734593486232
 11
5198.6232960292991
 21
1803.7860367504904
  0
LINE
  8
_0-2_
  6
CONTINUOUS
 62
    3
 10
5198.6232960292991
 20
1803.7860367504904
 11
5198.746174984758
 21
1803.7991759565607
  0
LINE
  8
_0-2_
  6
CONTINUOUS
 62
    3
 10
5198.746174984758
 20
1803.7991759565607
 11
5198.8691430843173
 21
1803.8128769668342
  0
LINE
  8
_0-2_
  6
CONTINUOUS
 62
    3
 10
5198.8691430843173
 20
1803.8128769668342
 11
5198.9922003279762
 21
1803.8271397813105
  0
LINE
  8
_0-2_
  6
CONTINUOUS
 62
    3
 10
5198.9922003279762
 20
1803.8271397813105
 11
5199.1153467157355
 21
1803.8419643999898
  0
LINE
  8
_0-2_
  6
CONTINUOUS
 62
    3
 10
5199.1153467157355
 20
1803.8419643999898
 11
5199.2385822475944
 21
1803.8573508228724
  0
LINE
  8
_0-2_
  6
CONTINUOUS
 62
    3
 10
5199.2385822475944
 20
1803.8573508228724
 11
5199.3619069235538
 21
1803.8732990499575
  0
LINE
  8
_0-2_
  6
CONTINUOUS
 62
    3
 10
5199.3619069235538
 20
1803.8732990499575
 11
5199.4853207436136
 21
1803.8898090812459
  0
LINE
  8
_0-2_
  6
CONTINUOUS
 62
    3
 10
5199.4853207436136
 20
1803.8898090812459
 11
5199.608823707772
 21
1803.9068809167372
  0
LINE
  8
_0-2_
  6
CONTINUOUS
 62
    3
 10
5199.608823707772
 20
1803.9068809167372
 11
5199.73241581603
 21
1803.9245145564316
  0
LINE
  8
_0-2_
  6
CONTINUOUS
 62
    3
 10
5199.73241581603
 20
1803.9245145564316
 11
5199.8560970683884
 21
1803.942710000329
  0
LINE
  8
_0-2_
  6
CONTINUOUS
 62
    3
 10
5199.8560970683884
 20
1803.942710000329
 11
5199.9798674648482
 21
1803.9614672484295
  0
LINE
  8
_0-2_
  6
CONTINUOUS
 62
    3
 10
5199.9798674648482
 20
1803.9614672484295
 11
5200.1037270054076
 21
1803.9807863007329
  0
LINE
  8
_0-2_
  6
CONTINUOUS
 62
    3
 10
5200.1037270054076
 20
1803.9807863007329
 11
5200.2276756900665
 21
1804.0006671572394
  0
LINE
  8
_0-2_
  6
CONTINUOUS
 62
    3
 10
5200.2276756900665
 20
1804.0006671572394
 11
5200.3517135188249
 21
1804.0211098179489
  0
LINE
  8
_0-2_
  6
CONTINUOUS
 62
    3
 10
5200.3517135188249
 20
1804.0211098179489
 11
5200.4758404916829
 21
1804.0421142828613
  0
LINE
  8
_0-2_
  6
CONTINUOUS
 62
    3
 10
5200.4758404916829
 20
1804.0421142828613
 11
5200.6000566086423
 21
1804.0636805519766
  0
LINE
  8
_0-2_
  6
CONTINUOUS
 62
    3
 10
5200.6000566086423
 20
1804.0636805519766
 11
5200.7243618697012
 21
1804.0858086252954
  0
LINE
  8
_0-2_
  6
CONTINUOUS
 62
    3
 10
5200.7243618697012
 20
1804.0858086252954
 11
5200.8487562748596
 21
1804.1084985028169
  0
LINE
  8
_0-2_
  6
CONTINUOUS
 62
    3
 10
5200.8487562748596
 20
1804.1084985028169
 11
5200.9732398241176
 21
1804.1317501845413
  0
LINE
  8
_0-2_
  6
CONTINUOUS
 62
    3
 10
5200.9732398241176
 20
1804.1317501845413
 11
5201.097812517477
 21
1804.1555636704688
  0
LINE
  8
_0-2_
  6
CONTINUOUS
 62
    3
 10
5201.097812517477
 20
1804.1555636704688
 11
5201.2224743549359
 21
1804.1799389605994
  0
LINE
  8
_0-2_
  6
CONTINUOUS
 62
    3
 10
5201.2224743549359
 20
1804.1799389605994
 11
5201.3472253364944
 21
1804.2048760549328
  0
LINE
  8
_0-2_
  6
CONTINUOUS
 62
    3
 10
5201.3472253364944
 20
1804.2048760549328
 11
5201.4720654621533
 21
1804.2303749534697
  0
LINE
  8
_0-2_
  6
CONTINUOUS
 62
    3
 10
5201.4720654621533
 20
1804.2303749534697
 11
5201.5969947319118
 21
1804.2564356562093
  0
LINE
  8
_0-2_
  6
CONTINUOUS
 62
    3
 10
5201.5969947319118
 20
1804.2564356562093
 11
5201.7220131457707
 21
1804.2830581631517
  0
LINE
  8
_0-2_
  6
CONTINUOUS
 62
    3
 10
5201.7220131457707
 20
1804.2830581631517
 11
5201.8471207037292
 21
1804.3102424742974
  0
LINE
  8
_0-2_
  6
CONTINUOUS
 62
    3
 10
5201.8471207037292
 20
1804.3102424742974
 11
5201.9723174057872
 21
1804.3379885896461
  0
LINE
  8
_0-2_
  6
CONTINUOUS
 62
    3
 10
5201.9723174057872
 20
1804.3379885896461
 11
5202.0976032519457
 21
1804.3662965091976
  0
LINE
  8
_0-2_
  6
CONTINUOUS
 62
    3
 10
5202.0976032519457
 20
1804.3662965091976
 11
5202.2229782422055
 21
1804.3951662329525
  0
LINE
  8
_0-2_
  6
CONTINUOUS
 62
    3
 10
5202.2229782422055
 20
1804.3951662329525
 11
5202.3484423765622
 21
1804.42459776091
  0
LINE
  8
_0-2_
  6
CONTINUOUS
 62
    3
 10
5202.3484423765622
 20
1804.42459776091
 11
5202.4739956550202
 21
1804.4545910930708
  0
LINE
  8
_0-2_
  6
CONTINUOUS
 62
    3
 10
5202.4739956550202
 20
1804.4545910930708
 11
5202.5996380775796
 21
1804.4851462294343
  0
LINE
  8
_0-2_
  6
CONTINUOUS
 62
    3
 10
5202.5996380775796
 20
1804.4851462294343
 11
5202.7253696442385
 21
1804.5162631700011
  0
LINE
  8
_0-2_
  6
CONTINUOUS
 62
    3
 10
5202.7253696442385
 20
1804.5162631700011
 11
5202.8511903549961
 21
1804.5479419147707
  0
LINE
  8
_0-2_
  6
CONTINUOUS
 62
    3
 10
5202.8511903549961
 20
1804.5479419147707
 11
5202.9771002098551
 21
1804.5801824637438
  0
LINE
  8
_0-2_
  6
CONTINUOUS
 62
    3
 10
5202.9771002098551
 20
1804.5801824637438
 11
5203.1030992088126
 21
1804.6129848169194
  0
LINE
  8
_0-2_
  6
CONTINUOUS
 62
    3
 10
5203.1030992088126
 20
1804.6129848169194
 11
5203.2291873518716
 21
1804.6463489742982
  0
LINE
  8
_0-2_
  6
CONTINUOUS
 62
    3
 10
5203.2291873518716
 20
1804.6463489742982
 11
5203.3553646390301
 21
1804.6802749358799
  0
LINE
  8
_0-2_
  6
CONTINUOUS
 62
    3
 10
5203.3553646390301
 20
1804.6802749358799
 11
5203.4816310702881
 21
1804.7147627016648
  0
LINE
  8
_0-2_
  6
CONTINUOUS
 62
    3
 10
5203.4816310702881
 20
1804.7147627016648
 11
5203.6079866456466
 21
1804.7498122716524
  0
LINE
  8
_0-2_
  6
CONTINUOUS
 62
    3
 10
5203.6079866456466
 20
1804.7498122716524
 11
5203.7341929969616
 21
1804.7851109797671
  0
LINE
  8
_0-2_
  6
CONTINUOUS
 62
    3
 10
5203.7341929969616
 20
1804.7851109797671
 11
5203.8600117560909
 21
1804.8203461599326
  0
LINE
  8
_0-2_
  6
CONTINUOUS
 62
    3
 10
5203.8600117560909
 20
1804.8203461599326
 11
5203.9854429230354
 21
1804.8555178121487
  0
LINE
  8
_0-2_
  6
CONTINUOUS
 62
    3
 10
5203.9854429230354
 20
1804.8555178121487
 11
5204.1104864977933
 21
1804.8906259364157
  0
LINE
  8
_0-2_
  6
CONTINUOUS
 62
    3
 10
5204.1104864977933
 20
1804.8906259364157
 11
5204.2351424803664
 21
1804.9256705327332
  0
LINE
  8
_0-2_
  6
CONTINUOUS
 62
    3
 10
5204.2351424803664
 20
1804.9256705327332
 11
5204.3594108707548
 21
1804.9606516011013
  0
LINE
  8
_0-2_
  6
CONTINUOUS
 62
    3
 10
5204.3594108707548
 20
1804.9606516011013
 11
5204.4832916689556
 21
1804.9955691415207
  0
LINE
  8
_0-2_
  6
CONTINUOUS
 62
    3
 10
5204.4832916689556
 20
1804.9955691415207
 11
5204.6067848749717
 21
1805.0304231539903
  0
LINE
  8
_0-2_
  6
CONTINUOUS
 62
    3
 10
5204.6067848749717
 20
1805.0304231539903
 11
5204.7298904888021
 21
1805.0652136385108
  0
LINE
  8
_0-2_
  6
CONTINUOUS
 62
    3
 10
5204.7298904888021
 20
1805.0652136385108
 11
5204.8526085104468
 21
1805.0999405950822
  0
LINE
  8
_0-2_
  6
CONTINUOUS
 62
    3
 10
5204.8526085104468
 20
1805.0999405950822
 11
5204.9749389399058
 21
1805.134604023704
  0
LINE
  8
_0-2_
  6
CONTINUOUS
 62
    3
 10
5204.9749389399058
 20
1805.134604023704
 11
5205.09688177718
 21
1805.1692039243769
  0
LINE
  8
_0-2_
  6
CONTINUOUS
 62
    3
 10
5205.09688177718
 20
1805.1692039243769
 11
5205.2184370222676
 21
1805.2037402971005
  0
LINE
  8
_0-2_
  6
CONTINUOUS
 62
    3
 10
5205.2184370222676
 20
1805.2037402971005
 11
5205.3396046751695
 21
1805.2382131418744
  0
LINE
  8
_0-2_
  6
CONTINUOUS
 62
    3
 10
5205.3396046751695
 20
1805.2382131418744
 11
5205.4603847358867
 21
1805.2726224586993
  0
LINE
  8
_0-2_
  6
CONTINUOUS
 62
    3
 10
5205.4603847358867
 20
1805.2726224586993
 11
5205.5807772044172
 21
1805.3069682475752
  0
LINE
  8
_0-2_
  6
CONTINUOUS
 62
    3
 10
5205.5807772044172
 20
1805.3069682475752
 11
5205.7007820807621
 21
1805.3412505085016
  0
LINE
  8
_0-2_
  6
CONTINUOUS
 62
    3
 10
5205.7007820807621
 20
1805.3412505085016
 11
5205.8203993649222
 21
1805.3754692414786
  0
LINE
  8
_0-2_
  6
CONTINUOUS
 62
    3
 10
5205.8203993649222
 20
1805.3754692414786
 11
5205.9396290568966
 21
1805.4096244465065
  0
LINE
  8
_0-2_
  6
CONTINUOUS
 62
    3
 10
5205.9396290568966
 20
1805.4096244465065
 11
5206.0584711566844
 21
1805.4437161235851
  0
LINE
  8
_0-2_
  6
CONTINUOUS
 62
    3
 10
5206.0584711566844
 20
1805.4437161235851
 11
5206.1769256642874
 21
1805.4777442727143
  0
LINE
  8
_0-2_
  6
CONTINUOUS
 62
    3
 10
5206.1769256642874
 20
1805.4777442727143
 11
5206.2949925797047
 21
1805.5117088938946
  0
LINE
  8
_0-2_
  6
CONTINUOUS
 62
    3
 10
5206.2949925797047
 20
1805.5117088938946
 11
5206.4126719029364
 21
1805.5456099871253
  0
LINE
  8
_0-2_
  6
CONTINUOUS
 62
    3
 10
5206.4126719029364
 20
1805.5456099871253
 11
5206.5299636339823
 21
1805.5794475524069
  0
LINE
  8
_0-2_
  6
CONTINUOUS
 62
    3
 10
5206.5299636339823
 20
1805.5794475524069
 11
5206.6468677728426
 21
1805.6132215897392
  0
LINE
  8
_0-2_
  6
CONTINUOUS
 62
    3
 10
5206.6468677728426
 20
1805.6132215897392
 11
5206.7633843195181
 21
1805.6469320991221
  0
LINE
  8
_0-2_
  6
CONTINUOUS
 62
    3
 10
5206.7633843195181
 20
1805.6469320991221
 11
5206.879513274007
 21
1805.6805790805558
  0
LINE
  8
_0-2_
  6
CONTINUOUS
 62
    3
 10
5206.879513274007
 20
1805.6805790805558
 11
5206.9952546363093
 21
1805.7141625340405
  0
LINE
  8
_0-2_
  6
CONTINUOUS
 62
    3
 10
5206.9952546363093
 20
1805.7141625340405
 11
5207.1106084064277
 21
1805.7476824595756
  0
LINE
  8
_0-2_
  6
CONTINUOUS
 62
    3
 10
5207.1106084064277
 20
1805.7476824595756
 11
5207.2255745843595
 21
1805.7811388571617
  0
LINE
  8
_0-2_
  6
CONTINUOUS
 62
    3
 10
5207.2255745843595
 20
1805.7811388571617
 11
5207.3401531701065
 21
1805.8145317267984
  0
LINE
  8
_0-2_
  6
CONTINUOUS
 62
    3
 10
5207.3401531701065
 20
1805.8145317267984
 11
5207.454344163667
 21
1805.8478610684856
  0
LINE
  8
_0-2_
  6
CONTINUOUS
 62
    3
 10
5207.454344163667
 20
1805.8478610684856
 11
5207.5681475650435
 21
1805.8811268822237
  0
LINE
  8
_0-2_
  6
CONTINUOUS
 62
    3
 10
5207.5681475650435
 20
1805.8811268822237
 11
5207.6815633742335
 21
1805.9143291680127
  0
LINE
  8
_0-2_
  6
CONTINUOUS
 62
    3
 10
5207.6815633742335
 20
1805.9143291680127
 11
5207.7945915912369
 21
1805.9474679258524
  0
LINE
  8
_0-2_
  6
CONTINUOUS
 62
    3
 10
5207.7945915912369
 20
1805.9474679258524
 11
5207.9072322160555
 21
1805.9805431557425
  0
LINE
  8
_0-2_
  6
CONTINUOUS
 62
    3
 10
5207.9072322160555
 20
1805.9805431557425
 11
5208.0194852486875
 21
1806.0135548576836
  0
LINE
  8
_0-2_
  6
CONTINUOUS
 62
    3
 10
5208.0194852486875
 20
1806.0135548576836
 11
5208.1313506891356
 21
1806.0465030316755
  0
LINE
  8
_0-2_
  6
CONTINUOUS
 62
    3
 10
5208.1313506891356
 20
1806.0465030316755
 11
5208.2428285373962
 21
1806.0793876777179
  0
LINE
  8
_0-2_
  6
CONTINUOUS
 62
    3
 10
5208.2428285373962
 20
1806.0793876777179
 11
5208.353918793473
 21
1806.1122087958115
  0
LINE
  8
_0-2_
  6
CONTINUOUS
 62
    3
 10
5208.353918793473
 20
1806.1122087958115
 11
5208.4646214573622
 21
1806.1449663859553
  0
LINE
  8
_0-2_
  6
CONTINUOUS
 62
    3
 10
5208.4646214573622
 20
1806.1449663859553
 11
5208.5749365290676
 21
1806.1776604481499
  0
LINE
  8
_0-2_
  6
CONTINUOUS
 62
    3
 10
5208.5749365290676
 20
1806.1776604481499
 11
5208.6848640085864
 21
1806.2102909823955
  0
LINE
  8
_0-2_
  6
CONTINUOUS
 62
    3
 10
5208.6848640085864
 20
1806.2102909823955
 11
5208.7944038959195
 21
1806.2428579886919
  0
LINE
  8
_0-2_
  6
CONTINUOUS
 62
    3
 10
5208.7944038959195
 20
1806.2428579886919
 11
5208.9035561910678
 21
1806.2753614670387
  0
LINE
  8
_0-2_
  6
CONTINUOUS
 62
    3
 10
5208.9035561910678
 20
1806.2753614670387
 11
5209.0123208940295
 21
1806.3078014174362
  0
LINE
  8
_0-2_
  6
CONTINUOUS
 62
    3
 10
5209.0123208940295
 20
1806.3078014174362
 11
5209.1206980048064
 21
1806.3401778398847
  0
LINE
  8
_0-2_
  6
CONTINUOUS
 62
    3
 10
5209.1206980048064
 20
1806.3401778398847
 11
5209.2286875233967
 21
1806.372490734384
  0
LINE
  8
_0-2_
  6
CONTINUOUS
 62
    3
 10
5209.2286875233967
 20
1806.372490734384
 11
5209.3362894498023
 21
1806.4047401009339
  0
LINE
  8
_0-2_
  6
CONTINUOUS
 62
    3
 10
5209.3362894498023
 20
1806.4047401009339
 11
5209.4435037840221
 21
1806.4369259395344
  0
LINE
  8
_0-2_
  6
CONTINUOUS
 62
    3
 10
5209.4435037840221
 20
1806.4369259395344
 11
5209.5503305260554
 21
1806.4690482501856
  0
LINE
  8
_0-2_
  6
CONTINUOUS
 62
    3
 10
5209.5503305260554
 20
1806.4690482501856
 11
5209.6567696759048
 21
1806.5011070328878
  0
LINE
  8
_0-2_
  6
CONTINUOUS
 62
    3
 10
5209.6567696759048
 20
1806.5011070328878
 11
5209.7628212335676
 21
1806.5331022876408
  0
LINE
  8
_0-2_
  6
CONTINUOUS
 62
    3
 10
5209.7628212335676
 20
1806.5331022876408
 11
5209.8684851990447
 21
1806.5650340144441
  0
LINE
  8
_0-2_
  6
CONTINUOUS
 62
    3
 10
5209.8684851990447
 20
1806.5650340144441
 11
5209.9737615723361
 21
1806.5969022132983
  0
LINE
  8
_0-2_
  6
CONTINUOUS
 62
    3
 10
5209.9737615723361
 20
1806.5969022132983
 11
5210.0786503534418
 21
1806.6287068842034
  0
LINE
  8
_0-2_
  6
CONTINUOUS
 62
    3
 10
5210.0786503534418
 20
1806.6287068842034
 11
5210.1831515423619
 21
1806.6604480271594
  0
LINE
  8
_0-2_
  6
CONTINUOUS
 62
    3
 10
5210.1831515423619
 20
1806.6604480271594
 11
5210.2872651390971
 21
1806.6921256421656
  0
LINE
  8
_0-2_
  6
CONTINUOUS
 62
    3
 10
5210.2872651390971
 20
1806.6921256421656
 11
5210.3909911436458
 21
1806.7237397292229
  0
LINE
  8
_0-2_
  6
CONTINUOUS
 62
    3
 10
5210.3909911436458
 20
1806.7237397292229
 11
5210.4943295560097
 21
1806.7552902883308
  0
LINE
  8
_0-2_
  6
CONTINUOUS
 62
    3
 10
5210.4943295560097
 20
1806.7552902883308
 11
5210.597280376187
 21
1806.7867773194894
  0
LINE
  8
_0-2_
  6
CONTINUOUS
 62
    3
 10
5210.597280376187
 20
1806.7867773194894
 11
5210.6998436041795
 21
1806.8182008226991
  0
LINE
  8
_0-2_
  6
CONTINUOUS
 62
    3
 10
5210.6998436041795
 20
1806.8182008226991
 11
5210.8020192399863
 21
1806.8495607979592
  0
LINE
  8
_0-2_
  6
CONTINUOUS
 62
    3
 10
5210.8020192399863
 20
1806.8495607979592
 11
5210.9038072836074
 21
1806.8808572452699
  0
LINE
  8
_0-2_
  6
CONTINUOUS
 62
    3
 10
5240.9038072836065
 20
1816.8808572452717
 11
5240.9038072836065
 21
1796.8808572452699
  0
LINE
  8
_0-2_
  6
CONTINUOUS
 62
    3
 10
5240.9038072836065
 20
1799.8808572452717
 11
5255.9038072836074
 21
1799.8808572452717
  0
LINE
  8
_0-2_
  6
CONTINUOUS
 62
    3
 10
5240.9038072836065
 20
1813.8808572452699
 11
5255.9038072836074
 21
1813.8808572452699
  0
ARC
  8
_0-2_
  6
CONTINUOUS
 62
    3
 10
5220.9038072836065
 20
1806.8808572452699
 40
10
 50
90
 51
270
  0
LINE
  8
_0-2_
  6
CONTINUOUS
 62
    3
 10
5220.9038072836074
 20
1796.8808572452699
 11
5240.9038072836065
 21
1796.8808572452699
  0
LINE
  8
_0-2_
  6
CONTINUOUS
 62
    3
 10
5220.9038072836074
 20
1816.8808572452717
 11
5240.9038072836065
 21
1816.8808572452717
  0
LINE
  8
_0-2_
  6
CONTINUOUS
 62
    3
 10
1773.4496091441906
 20
2715.3338905451428
 11
1773.3595544403083
 21
2715.4149652291517
  0
LINE
  8
_0-2_
  6
CONTINUOUS
 62
    3
 10
1773.3595544403083
 20
2715.4149652291517
 11
1773.2686740079153
 21
2715.4966863003183
  0
LINE
  8
_0-2_
  6
CONTINUOUS
 62
    3
 10
1773.2686740079153
 20
2715.4966863003183
 11
1773.1769678470114
 21
2715.5790537586427
  0
LINE
  8
_0-2_
  6
CONTINUOUS
 62
    3
 10
1773.1769678470114
 20
2715.5790537586427
 11
1773.0844359575967
 21
2715.6620676041248
  0
LINE
  8
_0-2_
  6
CONTINUOUS
 62
    3
 10
1773.0844359575967
 20
2715.6620676041248
 11
1772.9910783396713
 21
2715.7457278367647
  0
LINE
  8
_0-2_
  6
CONTINUOUS
 62
    3
 10
1772.9910783396713
 20
2715.7457278367647
 11
1772.8968949932348
 21
2715.8300344565619
  0
LINE
  8
_0-2_
  6
CONTINUOUS
 62
    3
 10
1772.8968949932348
 20
2715.8300344565619
 11
1772.8018859182876
 21
2715.9149874635168
  0
LINE
  8
_0-2_
  6
CONTINUOUS
 62
    3
 10
1772.8018859182876
 20
2715.9149874635168
 11
1772.7060511148297
 21
2716.0005868576304
  0
LINE
  8
_0-2_
  6
CONTINUOUS
 62
    3
 10
1772.7060511148297
 20
2716.0005868576304
 11
1772.6093905828611
 21
2716.0868326389009
  0
LINE
  8
_0-2_
  6
CONTINUOUS
 62
    3
 10
1772.6093905828611
 20
2716.0868326389009
 11
1772.5119043223817
 21
2716.1737248073291
  0
LINE
  8
_0-2_
  6
CONTINUOUS
 62
    3
 10
1772.5119043223817
 20
2716.1737248073291
 11
1772.4135923333911
 21
2716.261263362916
  0
LINE
  8
_0-2_
  6
CONTINUOUS
 62
    3
 10
1772.4135923333911
 20
2716.261263362916
 11
1772.3144546158901
 21
2716.3494483056593
  0
LINE
  8
_0-2_
  6
CONTINUOUS
 62
    3
 10
1772.3144546158901
 20
2716.3494483056593
 11
1772.2144911698779
 21
2716.4382796355608
  0
LINE
  8
_0-2_
  6
CONTINUOUS
 62
    3
 10
1772.2144911698779
 20
2716.4382796355608
 11
1772.1137019953553
 21
2716.52775735262
  0
LINE
  8
_0-2_
  6
CONTINUOUS
 62
    3
 10
1772.1137019953553
 20
2716.52775735262
 11
1772.0120870923215
 21
2716.6178814568375
  0
LINE
  8
_0-2_
  6
CONTINUOUS
 62
    3
 10
1772.0120870923215
 20
2716.6178814568375
 11
1771.9096464607774
 21
2716.7086519482127
  0
LINE
  8
_0-2_
  6
CONTINUOUS
 62
    3
 10
1771.9096464607774
 20
2716.7086519482127
 11
1771.8063801007222
 21
2716.8000688267448
  0
LINE
  8
_0-2_
  6
CONTINUOUS
 62
    3
 10
1771.8063801007222
 20
2716.8000688267448
 11
1771.7022880121563
 21
2716.8921320924355
  0
LINE
  8
_0-2_
  6
CONTINUOUS
 62
    3
 10
1771.7022880121563
 20
2716.8921320924355
 11
1771.5973701950795
 21
2716.9848417452836
  0
LINE
  8
_0-2_
  6
CONTINUOUS
 62
    3
 10
1771.5973701950795
 20
2716.9848417452836
 11
1771.491626649492
 21
2717.0781977852894
  0
LINE
  8
_0-2_
  6
CONTINUOUS
 62
    3
 10
1771.491626649492
 20
2717.0781977852894
 11
1771.3850573753934
 21
2717.1722002124529
  0
LINE
  8
_0-2_
  6
CONTINUOUS
 62
    3
 10
1771.3850573753934
 20
2717.1722002124529
 11
1771.2776623727841
 21
2717.2668490267743
  0
LINE
  8
_0-2_
  6
CONTINUOUS
 62
    3
 10
1771.2776623727841
 20
2717.2668490267743
 11
1771.1694416416644
 21
2717.3621442282529
  0
LINE
  8
_0-2_
  6
CONTINUOUS
 62
    3
 10
1771.1694416416644
 20
2717.3621442282529
 11
1771.0603951820335
 21
2717.4580858168902
  0
LINE
  8
_0-2_
  6
CONTINUOUS
 62
    3
 10
1771.0603951820335
 20
2717.4580858168902
 11
1770.9505229938918
 21
2717.5546737926843
  0
LINE
  8
_0-2_
  6
CONTINUOUS
 62
    3
 10
1770.9505229938918
 20
2717.5546737926843
 11
1770.8398250772395
 21
2717.6519081556362
  0
LINE
  8
_0-2_
  6
CONTINUOUS
 62
    3
 10
1770.8398250772395
 20
2717.6519081556362
 11
1770.7283014320765
 21
2717.7497889057463
  0
LINE
  8
_0-2_
  6
CONTINUOUS
 62
    3
 10
1770.7283014320765
 20
2717.7497889057463
 11
1770.6159520584024
 21
2717.8483160430142
  0
LINE
  8
_0-2_
  6
CONTINUOUS
 62
    3
 10
1770.6159520584024
 20
2717.8483160430142
 11
1770.5027769562175
 21
2717.9474895674393
  0
LINE
  8
_0-2_
  6
CONTINUOUS
 62
    3
 10
1770.5027769562175
 20
2717.9474895674393
 11
1770.3887761255219
 21
2718.0473094790227
  0
LINE
  8
_0-2_
  6
CONTINUOUS
 62
    3
 10
1770.3887761255219
 20
2718.0473094790227
 11
1770.2739495663154
 21
2718.1477757777634
  0
LINE
  8
_0-2_
  6
CONTINUOUS
 62
    3
 10
1770.2739495663154
 20
2718.1477757777634
 11
1770.1582972785986
 21
2718.2488884636623
  0
LINE
  8
_0-2_
  6
CONTINUOUS
 62
    3
 10
1770.1582972785986
 20
2718.2488884636623
 11
1770.0418192623706
 21
2718.3506475367185
  0
LINE
  8
_0-2_
  6
CONTINUOUS
 62
    3
 10
1770.0418192623706
 20
2718.3506475367185
 11
1769.9245155176318
 21
2718.4530529969329
  0
LINE
  8
_0-2_
  6
CONTINUOUS
 62
    3
 10
1769.9245155176318
 20
2718.4530529969329
 11
1769.8063860443822
 21
2718.5561048443051
  0
LINE
  8
_0-2_
  6
CONTINUOUS
 62
    3
 10
1769.8063860443822
 20
2718.5561048443051
 11
1769.6874308426218
 21
2718.6598030788346
  0
LINE
  8
_0-2_
  6
CONTINUOUS
 62
    3
 10
1769.6874308426218
 20
2718.6598030788346
 11
1769.5676499123506
 21
2718.7641477005213
  0
LINE
  8
_0-2_
  6
CONTINUOUS
 62
    3
 10
1769.5676499123506
 20
2718.7641477005213
 11
1769.4470432535684
 21
2718.8691387093668
  0
LINE
  8
_0-2_
  6
CONTINUOUS
 62
    3
 10
1769.4470432535684
 20
2718.8691387093668
 11
1769.3256108662754
 21
2718.9747761053695
  0
LINE
  8
_0-2_
  6
CONTINUOUS
 62
    3
 10
1769.3256108662754
 20
2718.9747761053695
 11
1769.2033527504718
 21
2719.08105988853
  0
LINE
  8
_0-2_
  6
CONTINUOUS
 62
    3
 10
1769.2033527504718
 20
2719.08105988853
 11
1769.0802689061575
 21
2719.1879900588483
  0
LINE
  8
_0-2_
  6
CONTINUOUS
 62
    3
 10
1769.0802689061575
 20
2719.1879900588483
 11
1768.9563593333321
 21
2719.2955666163243
  0
LINE
  8
_0-2_
  6
CONTINUOUS
 62
    3
 10
1768.9563593333321
 20
2719.2955666163243
 11
1768.8316240319959
 21
2719.4037895609581
  0
LINE
  8
_0-2_
  6
CONTINUOUS
 62
    3
 10
1768.8316240319959
 20
2719.4037895609581
 11
1768.7060630021492
 21
2719.5126588927492
  0
LINE
  8
_0-2_
  6
CONTINUOUS
 62
    3
 10
1768.7060630021492
 20
2719.5126588927492
 11
1768.5796762437915
 21
2719.622174611698
  0
LINE
  8
_0-2_
  6
CONTINUOUS
 62
    3
 10
1768.5796762437915
 20
2719.622174611698
 11
1768.452463756923
 21
2719.7323367178051
  0
LINE
  8
_0-2_
  6
CONTINUOUS
 62
    3
 10
1768.452463756923
 20
2719.7323367178051
 11
1768.3244255415436
 21
2719.8431452110699
  0
LINE
  8
_0-2_
  6
CONTINUOUS
 62
    3
 10
1768.3244255415436
 20
2719.8431452110699
 11
1768.1955615976535
 21
2719.954600091492
  0
LINE
  8
_0-2_
  6
CONTINUOUS
 62
    3
 10
1768.1955615976535
 20
2719.954600091492
 11
1768.0658719252526
 21
2720.0667013590728
  0
LINE
  8
_0-2_
  6
CONTINUOUS
 62
    3
 10
1768.0658719252526
 20
2720.0667013590728
 11
1767.9353565243409
 21
2720.1794490138104
  0
LINE
  8
_0-2_
  6
CONTINUOUS
 62
    3
 10
1767.9353565243409
 20
2720.1794490138104
 11
1767.8040153949182
 21
2720.2928430557058
  0
LINE
  8
_0-2_
  6
CONTINUOUS
 62
    3
 10
1767.8040153949182
 20
2720.2928430557058
 11
1767.6718485369852
 21
2720.406883484759
  0
LINE
  8
_0-2_
  6
CONTINUOUS
 62
    3
 10
1767.6718485369852
 20
2720.406883484759
 11
1767.5388559505409
 21
2720.5215703009703
  0
LINE
  8
_0-2_
  6
CONTINUOUS
 62
    3
 10
1767.5388559505409
 20
2720.5215703009703
 11
1767.4050376355863
 21
2720.636903504339
  0
LINE
  8
_0-2_
  6
CONTINUOUS
 62
    3
 10
1767.4050376355863
 20
2720.636903504339
 11
1767.2703935921204
 21
2720.7528830948654
  0
LINE
  8
_0-2_
  6
CONTINUOUS
 62
    3
 10
1767.2703935921204
 20
2720.7528830948654
 11
1767.1349238201442
 21
2720.8695090725496
  0
LINE
  8
_0-2_
  6
CONTINUOUS
 62
    3
 10
1767.1349238201442
 20
2720.8695090725496
 11
1766.9986283196567
 21
2720.9867814373915
  0
LINE
  8
_0-2_
  6
CONTINUOUS
 62
    3
 10
1766.9986283196567
 20
2720.9867814373915
 11
1766.8615070906585
 21
2721.1047001893917
  0
LINE
  8
_0-2_
  6
CONTINUOUS
 62
    3
 10
1766.8615070906585
 20
2721.1047001893917
 11
1766.7235601331495
 21
2721.2232653285491
  0
LINE
  8
_0-2_
  6
CONTINUOUS
 62
    3
 10
1766.7235601331495
 20
2721.2232653285491
 11
1766.5847874471299
 21
2721.3424768548639
  0
LINE
  8
_0-2_
  6
CONTINUOUS
 62
    3
 10
1766.5847874471299
 20
2721.3424768548639
 11
1766.4451890325995
 21
2721.4623347683369
  0
LINE
  8
_0-2_
  6
CONTINUOUS
 62
    3
 10
1766.4451890325995
 20
2721.4623347683369
 11
1766.3047648895581
 21
2721.5828390689676
  0
LINE
  8
_0-2_
  6
CONTINUOUS
 62
    3
 10
1766.3047648895581
 20
2721.5828390689676
 11
1766.1635150180059
 21
2721.7039897567561
  0
LINE
  8
_0-2_
  6
CONTINUOUS
 62
    3
 10
1766.1635150180059
 20
2721.7039897567561
 11
1766.0214394179429
 21
2721.8257868317023
  0
LINE
  8
_0-2_
  6
CONTINUOUS
 62
    3
 10
1766.0214394179429
 20
2721.8257868317023
 11
1765.8787982664098
 21
2721.9482295556195
  0
LINE
  8
_0-2_
  6
CONTINUOUS
 62
    3
 10
1765.8787982664098
 20
2721.9482295556195
 11
1765.7358517404468
 21
2722.0713171903217
  0
LINE
  8
_0-2_
  6
CONTINUOUS
 62
    3
 10
1765.7358517404468
 20
2722.0713171903217
 11
1765.5925998400548
 21
2722.1950497358093
  0
LINE
  8
_0-2_
  6
CONTINUOUS
 62
    3
 10
1765.5925998400548
 20
2722.1950497358093
 11
1765.449042565233
 21
2722.3194271920811
  0
LINE
  8
_0-2_
  6
CONTINUOUS
 62
    3
 10
1765.449042565233
 20
2722.3194271920811
 11
1765.3051799159816
 21
2722.4444495591379
  0
LINE
  8
_0-2_
  6
CONTINUOUS
 62
    3
 10
1765.3051799159816
 20
2722.4444495591379
 11
1765.1610118923006
 21
2722.5701168369797
  0
LINE
  8
_0-2_
  6
CONTINUOUS
 62
    3
 10
1765.1610118923006
 20
2722.5701168369797
 11
1765.0165384941902
 21
2722.6964290256055
  0
LINE
  8
_0-2_
  6
CONTINUOUS
 62
    3
 10
1765.0165384941902
 20
2722.6964290256055
 11
1764.8717597216503
 21
2722.8233861250169
  0
LINE
  8
_0-2_
  6
CONTINUOUS
 62
    3
 10
1764.8717597216503
 20
2722.8233861250169
 11
1764.7266755746809
 21
2722.9509881352133
  0
LINE
  8
_0-2_
  6
CONTINUOUS
 62
    3
 10
1764.7266755746809
 20
2722.9509881352133
 11
1764.5812860532817
 21
2723.0792350561942
  0
LINE
  8
_0-2_
  6
CONTINUOUS
 62
    3
 10
1764.5812860532817
 20
2723.0792350561942
 11
1764.435591157453
 21
2723.2081268879601
  0
LINE
  8
_0-2_
  6
CONTINUOUS
 62
    3
 10
1764.435591157453
 20
2723.2081268879601
 11
1764.2895908871947
 21
2723.3376636305111
  0
LINE
  8
_0-2_
  6
CONTINUOUS
 62
    3
 10
1764.2895908871947
 20
2723.3376636305111
 11
1764.1432852425069
 21
2723.4678452838461
  0
LINE
  8
_0-2_
  6
CONTINUOUS
 62
    3
 10
1764.1432852425069
 20
2723.4678452838461
 11
1763.9966742233896
 21
2723.5986718479667
  0
LINE
  8
_0-2_
  6
CONTINUOUS
 62
    3
 10
1763.9966742233896
 20
2723.5986718479667
 11
1763.8497578298425
 21
2723.7301433228722
  0
LINE
  8
_0-2_
  6
CONTINUOUS
 62
    3
 10
1763.8497578298425
 20
2723.7301433228722
 11
1763.7025360618659
 21
2723.8622597085619
  0
LINE
  8
_0-2_
  6
CONTINUOUS
 62
    3
 10
1763.7025360618659
 20
2723.8622597085619
 11
1763.5550089194599
 21
2723.9950210050365
  0
LINE
  8
_0-2_
  6
CONTINUOUS
 62
    3
 10
1763.5550089194599
 20
2723.9950210050365
 11
1763.4071764026244
 21
2724.1284272122957
  0
LINE
  8
_0-2_
  6
CONTINUOUS
 62
    3
 10
1763.4071764026244
 20
2724.1284272122957
 11
1763.259038511359
 21
2724.2624783303409
  0
LINE
  8
_0-2_
  6
CONTINUOUS
 62
    3
 10
1763.259038511359
 20
2724.2624783303409
 11
1763.1105952456642
 21
2724.3971743591701
  0
LINE
  8
_0-2_
  6
CONTINUOUS
 62
    3
 10
1763.1105952456642
 20
2724.3971743591701
 11
1762.9618466055399
 21
2724.5325152987839
  0
LINE
  8
_0-2_
  6
CONTINUOUS
 62
    3
 10
1762.9618466055399
 20
2724.5325152987839
 11
1762.812792590986
 21
2724.6685011491832
  0
LINE
  8
_0-2_
  6
CONTINUOUS
 62
    3
 10
1762.812792590986
 20
2724.6685011491832
 11
1762.6634332020026
 21
2724.805131910367
  0
LINE
  8
_0-2_
  6
CONTINUOUS
 62
    3
 10
1762.6634332020026
 20
2724.805131910367
 11
1762.5137684385895
 21
2724.9424075823354
  0
LINE
  8
_0-2_
  6
CONTINUOUS
 62
    3
 10
1762.5137684385895
 20
2724.9424075823354
 11
1762.363798300747
 21
2725.0803281650897
  0
LINE
  8
_0-2_
  6
CONTINUOUS
 62
    3
 10
1762.363798300747
 20
2725.0803281650897
 11
1762.2135227884748
 21
2725.2188936586276
  0
LINE
  8
_0-2_
  6
CONTINUOUS
 62
    3
 10
1762.2135227884748
 20
2725.2188936586276
 11
1762.0629419017732
 21
2725.3581040629506
  0
LINE
  8
_0-2_
  6
CONTINUOUS
 62
    3
 10
1762.0629419017732
 20
2725.3581040629506
 11
1761.9120556406419
 21
2725.497959378059
  0
LINE
  8
_0-2_
  6
CONTINUOUS
 62
    3
 10
1761.9120556406419
 20
2725.497959378059
 11
1761.7608640050812
 21
2725.638459603952
  0
LINE
  8
_0-2_
  6
CONTINUOUS
 62
    3
 10
1761.7608640050812
 20
2725.638459603952
 11
1761.6093669950908
 21
2725.7796047406291
  0
LINE
  8
_0-2_
  6
CONTINUOUS
 62
    3
 10
1761.6093669950908
 20
2725.7796047406291
 11
1761.4575646106709
 21
2725.9213947880921
  0
LINE
  8
_0-2_
  6
CONTINUOUS
 62
    3
 10
1761.4575646106709
 20
2725.9213947880921
 11
1761.3054568518214
 21
2726.0638297463397
  0
LINE
  8
_0-2_
  6
CONTINUOUS
 62
    3
 10
1761.3054568518214
 20
2726.0638297463397
 11
1761.1530437185424
 21
2726.2069096153714
  0
LINE
  8
_0-2_
  6
CONTINUOUS
 62
    3
 10
1761.1530437185424
 20
2726.2069096153714
 11
1761.000325210834
 21
2726.350634395189
  0
LINE
  8
_0-2_
  6
CONTINUOUS
 62
    3
 10
1761.000325210834
 20
2726.350634395189
 11
1760.8473013286957
 21
2726.4950040857907
  0
LINE
  8
_0-2_
  6
CONTINUOUS
 62
    3
 10
1760.8473013286957
 20
2726.4950040857907
 11
1760.693972072128
 21
2726.640018687177
  0
LINE
  8
_0-2_
  6
CONTINUOUS
 62
    3
 10
1760.693972072128
 20
2726.640018687177
 11
1760.5403374411308
 21
2726.7856781993491
  0
LINE
  8
_0-2_
  6
CONTINUOUS
 62
    3
 10
1760.5403374411308
 20
2726.7856781993491
 11
1760.3863974357041
 21
2726.9319826223054
  0
LINE
  8
_0-2_
  6
CONTINUOUS
 62
    3
 10
1760.3863974357041
 20
2726.9319826223054
 11
1760.2321520558476
 21
2727.0789319560463
  0
LINE
  8
_0-2_
  6
CONTINUOUS
 62
    3
 10
1760.2321520558476
 20
2727.0789319560463
 11
1760.0776013015616
 21
2727.2265262005726
  0
LINE
  8
_0-2_
  6
CONTINUOUS
 62
    3
 10
1760.0776013015616
 20
2727.2265262005726
 11
1759.9227451728461
 21
2727.3747653558839
  0
LINE
  8
_0-2_
  6
CONTINUOUS
 62
    3
 10
1759.9227451728461
 20
2727.3747653558839
 11
1759.767583669701
 21
2727.5236494219789
  0
LINE
  8
_0-2_
  6
CONTINUOUS
 62
    3
 10
1759.767583669701
 20
2727.5236494219789
 11
1759.6121167921265
 21
2727.6731783988598
  0
LINE
  8
_0-2_
  6
CONTINUOUS
 62
    3
 10
1759.6121167921265
 20
2727.6731783988598
 11
1759.4563445401222
 21
2727.8233522865253
  0
LINE
  8
_0-2_
  6
CONTINUOUS
 62
    3
 10
1759.4563445401222
 20
2727.8233522865253
 11
1759.3002669136886
 21
2727.9741710849758
  0
LINE
  8
_0-2_
  6
CONTINUOUS
 62
    3
 10
1759.3002669136886
 20
2727.9741710849758
 11
1759.1438839128252
 21
2728.1256347942108
  0
LINE
  8
_0-2_
  6
CONTINUOUS
 62
    3
 10
1759.1438839128252
 20
2728.1256347942108
 11
1758.9871955375324
 21
2728.2777434142308
  0
LINE
  8
_0-2_
  6
CONTINUOUS
 62
    3
 10
1758.9871955375324
 20
2728.2777434142308
 11
1758.83020178781
 21
2728.4304969450359
  0
LINE
  8
_0-2_
  6
CONTINUOUS
 62
    3
 10
1758.83020178781
 20
2728.4304969450359
 11
1758.6729026636581
 21
2728.5838953866255
  0
LINE
  8
_0-2_
  6
CONTINUOUS
 62
    3
 10
1758.6729026636581
 20
2728.5838953866255
 11
1758.5152981650765
 21
2728.7379387389997
  0
LINE
  8
_0-2_
  6
CONTINUOUS
 62
    3
 10
1758.5152981650765
 20
2728.7379387389997
 11
1758.3573882920655
 21
2728.8926270021593
  0
LINE
  8
_0-2_
  6
CONTINUOUS
 62
    3
 10
1758.3573882920655
 20
2728.8926270021593
 11
1758.1991730446248
 21
2729.0479601761035
  0
LINE
  8
_0-2_
  6
CONTINUOUS
 62
    3
 10
1758.1991730446248
 20
2729.0479601761035
 11
1758.0406524227546
 21
2729.2039382608323
  0
LINE
  8
_0-2_
  6
CONTINUOUS
 62
    3
 10
1758.0406524227546
 20
2729.2039382608323
 11
1757.8818264264551
 21
2729.360561256346
  0
LINE
  8
_0-2_
  6
CONTINUOUS
 62
    3
 10
1757.8818264264551
 20
2729.360561256346
 11
1757.7226950557256
 21
2729.5178291626444
  0
LINE
  8
_0-2_
  6
CONTINUOUS
 62
    3
 10
1757.7226950557256
 20
2729.5178291626444
 11
1757.5632583105664
 21
2729.6757419797277
  0
LINE
  8
_0-2_
  6
CONTINUOUS
 62
    3
 10
1757.5632583105664
 20
2729.6757419797277
 11
1757.4035161909778
 21
2729.8342997075961
  0
LINE
  8
_0-2_
  6
CONTINUOUS
 62
    3
 10
1757.4035161909778
 20
2729.8342997075961
 11
1757.2434686969598
 21
2729.9935023462494
  0
LINE
  8
_0-2_
  6
CONTINUOUS
 62
    3
 10
1757.2434686969598
 20
2729.9935023462494
 11
1757.0831158285123
 21
2730.1533498956878
  0
LINE
  8
_0-2_
  6
CONTINUOUS
 62
    3
 10
1757.0831158285123
 20
2730.1533498956878
 11
1756.9224575856351
 21
2730.3138423559108
  0
LINE
  8
_0-2_
  6
CONTINUOUS
 62
    3
 10
1756.9224575856351
 20
2730.3138423559108
 11
1756.7614939683285
 21
2730.4749797269183
  0
LINE
  8
_0-2_
  6
CONTINUOUS
 62
    3
 10
1756.7614939683285
 20
2730.4749797269183
 11
1756.600224976592
 21
2730.6367620087112
  0
LINE
  8
_0-2_
  6
CONTINUOUS
 62
    3
 10
1756.600224976592
 20
2730.6367620087112
 11
1756.4386506104265
 21
2730.7991892012883
  0
LINE
  8
_0-2_
  6
CONTINUOUS
 62
    3
 10
1756.4386506104265
 20
2730.7991892012883
 11
1756.2767708698311
 21
2730.9622613046504
  0
LINE
  8
_0-2_
  6
CONTINUOUS
 62
    3
 10
1756.2767708698311
 20
2730.9622613046504
 11
1756.1154123677898
 21
2731.1256411643344
  0
LINE
  8
_0-2_
  6
CONTINUOUS
 62
    3
 10
1756.1154123677898
 20
2731.1256411643344
 11
1755.9554017172859
 21
2731.2889916258769
  0
LINE
  8
_0-2_
  6
CONTINUOUS
 62
    3
 10
1755.9554017172859
 20
2731.2889916258769
 11
1755.7967389183195
 21
2731.4523126892777
  0
LINE
  8
_0-2_
  6
CONTINUOUS
 62
    3
 10
1755.7967389183195
 20
2731.4523126892777
 11
1755.6394239708907
 21
2731.6156043545375
  0
LINE
  8
_0-2_
  6
CONTINUOUS
 62
    3
 10
1755.6394239708907
 20
2731.6156043545375
 11
1755.4834568749993
 21
2731.7788666216552
  0
LINE
  8
_0-2_
  6
CONTINUOUS
 62
    3
 10
1755.4834568749993
 20
2731.7788666216552
 11
1755.3288376306452
 21
2731.9420994906318
  0
LINE
  8
_0-2_
  6
CONTINUOUS
 62
    3
 10
1755.3288376306452
 20
2731.9420994906318
 11
1755.1755662378287
 21
2732.1053029614673
  0
LINE
  8
_0-2_
  6
CONTINUOUS
 62
    3
 10
1755.1755662378287
 20
2732.1053029614673
 11
1755.0236426965498
 21
2732.2684770341607
  0
LINE
  8
_0-2_
  6
CONTINUOUS
 62
    3
 10
1755.0236426965498
 20
2732.2684770341607
 11
1754.8730670068082
 21
2732.431621708713
  0
LINE
  8
_0-2_
  6
CONTINUOUS
 62
    3
 10
1754.8730670068082
 20
2732.431621708713
 11
1754.7238391686042
 21
2732.5947369851242
  0
LINE
  8
_0-2_
  6
CONTINUOUS
 62
    3
 10
1754.7238391686042
 20
2732.5947369851242
 11
1754.5759591819376
 21
2732.7578228633934
  0
LINE
  8
_0-2_
  6
CONTINUOUS
 62
    3
 10
1754.5759591819376
 20
2732.7578228633934
 11
1754.4294270468085
 21
2732.9208793435214
  0
LINE
  8
_0-2_
  6
CONTINUOUS
 62
    3
 10
1754.4294270468085
 20
2732.9208793435214
 11
1754.2842427632172
 21
2733.0839064255078
  0
LINE
  8
_0-2_
  6
CONTINUOUS
 62
    3
 10
1754.2842427632172
 20
2733.0839064255078
 11
1754.1404063311631
 21
2733.2469041093527
  0
LINE
  8
_0-2_
  6
CONTINUOUS
 62
    3
 10
1754.1404063311631
 20
2733.2469041093527
 11
1753.9979177506466
 21
2733.4098723950565
  0
LINE
  8
_0-2_
  6
CONTINUOUS
 62
    3
 10
1753.9979177506466
 20
2733.4098723950565
 11
1753.8567770216675
 21
2733.5728112826182
  0
LINE
  8
_0-2_
  6
CONTINUOUS
 62
    3
 10
1753.8567770216675
 20
2733.5728112826182
 11
1753.716984144226
 21
2733.7357207720388
  0
LINE
  8
_0-2_
  6
CONTINUOUS
 62
    3
 10
1753.716984144226
 20
2733.7357207720388
 11
1753.5785391183219
 21
2733.8986008633183
  0
LINE
  8
_0-2_
  6
CONTINUOUS
 62
    3
 10
1753.5785391183219
 20
2733.8986008633183
 11
1753.4414419439554
 21
2734.0614515564562
  0
LINE
  8
_0-2_
  6
CONTINUOUS
 62
    3
 10
1753.4414419439554
 20
2734.0614515564562
 11
1753.3056926211261
 21
2734.2242728514525
  0
LINE
  8
_0-2_
  6
CONTINUOUS
 62
    3
 10
1753.3056926211261
 20
2734.2242728514525
 11
1753.1712911498346
 21
2734.3870647483072
  0
LINE
  8
_0-2_
  6
CONTINUOUS
 62
    3
 10
1753.1712911498346
 20
2734.3870647483072
 11
1753.0382375300806
 21
2734.5498272470204
  0
LINE
  8
_0-2_
  6
CONTINUOUS
 62
    3
 10
1753.0382375300806
 20
2734.5498272470204
 11
1752.906531761864
 21
2734.7125603475929
  0
LINE
  8
_0-2_
  6
CONTINUOUS
 62
    3
 10
1752.906531761864
 20
2734.7125603475929
 11
1752.776173845185
 21
2734.8752640500234
  0
LINE
  8
_0-2_
  6
CONTINUOUS
 62
    3
 10
1752.776173845185
 20
2734.8752640500234
 11
1752.6471637800432
 21
2735.0379383543122
  0
LINE
  8
_0-2_
  6
CONTINUOUS
 62
    3
 10
1752.6471637800432
 20
2735.0379383543122
 11
1752.5195015664392
 21
2735.20058326046
  0
LINE
  8
_0-2_
  6
CONTINUOUS
 62
    3
 10
1752.5195015664392
 20
2735.20058326046
 11
1752.3931872043727
 21
2735.3631987684662
  0
LINE
  8
_0-2_
  6
CONTINUOUS
 62
    3
 10
1752.3931872043727
 20
2735.3631987684662
 11
1752.2682206938434
 21
2735.5257848783313
  0
LINE
  8
_0-2_
  6
CONTINUOUS
 62
    3
 10
1752.2682206938434
 20
2735.5257848783313
 11
1752.1446020348517
 21
2735.6883415900538
  0
LINE
  8
_0-2_
  6
CONTINUOUS
 62
    3
 10
1752.1446020348517
 20
2735.6883415900538
 11
1752.0223312273974
 21
2735.8508689036357
  0
LINE
  8
_0-2_
  6
CONTINUOUS
 62
    3
 10
1752.0223312273974
 20
2735.8508689036357
 11
1751.9014082714807
 21
2736.0133668190765
  0
LINE
  8
_0-2_
  6
CONTINUOUS
 62
    3
 10
1751.9014082714807
 20
2736.0133668190765
 11
1751.7818331671015
 21
2736.1758353363753
  0
LINE
  8
_0-2_
  6
CONTINUOUS
 62
    3
 10
1751.7818331671015
 20
2736.1758353363753
 11
1751.6636059142597
 21
2736.3382744555329
  0
LINE
  8
_0-2_
  6
CONTINUOUS
 62
    3
 10
1751.6636059142597
 20
2736.3382744555329
 11
1751.5467265129555
 21
2736.5006841765489
  0
LINE
  8
_0-2_
  6
CONTINUOUS
 62
    3
 10
1751.5467265129555
 20
2736.5006841765489
 11
1751.4311949631888
 21
2736.6630644994234
  0
LINE
  8
_0-2_
  6
CONTINUOUS
 62
    3
 10
1751.4311949631888
 20
2736.6630644994234
 11
1751.3170112649595
 21
2736.8254154241567
  0
LINE
  8
_0-2_
  6
CONTINUOUS
 62
    3
 10
1751.3170112649595
 20
2736.8254154241567
 11
1751.2041754182678
 21
2736.9877369507481
  0
LINE
  8
_0-2_
  6
CONTINUOUS
 62
    3
 10
1751.2041754182678
 20
2736.9877369507481
 11
1751.0926874231136
 21
2737.1500290791982
  0
LINE
  8
_0-2_
  6
CONTINUOUS
 62
    3
 10
1751.0926874231136
 20
2737.1500290791982
 11
1750.9825472794969
 21
2737.3122918095073
  0
LINE
  8
_0-2_
  6
CONTINUOUS
 62
    3
 10
1750.9825472794969
 20
2737.3122918095073
 11
1750.8737549874174
 21
2737.4745251416743
  0
LINE
  8
_0-2_
  6
CONTINUOUS
 62
    3
 10
1750.8737549874174
 20
2737.4745251416743
 11
1750.7663105468755
 21
2737.6367290757003
  0
LINE
  8
_0-2_
  6
CONTINUOUS
 62
    3
 10
1750.7663105468755
 20
2737.6367290757003
 11
1750.6602139578713
 21
2737.7989036115841
  0
LINE
  8
_0-2_
  6
CONTINUOUS
 62
    3
 10
1750.6602139578713
 20
2737.7989036115841
 11
1750.5554652204046
 21
2737.9610487493278
  0
LINE
  8
_0-2_
  6
CONTINUOUS
 62
    3
 10
1750.5554652204046
 20
2737.9610487493278
 11
1750.4520643344749
 21
2738.123164488929
  0
LINE
  8
_0-2_
  6
CONTINUOUS
 62
    3
 10
1750.4520643344749
 20
2738.123164488929
 11
1750.3500113000832
 21
2738.2852508303895
  0
LINE
  8
_0-2_
  6
CONTINUOUS
 62
    3
 10
1750.3500113000832
 20
2738.2852508303895
 11
1750.249306117229
 21
2738.447307773708
  0
LINE
  8
_0-2_
  6
CONTINUOUS
 62
    3
 10
1750.249306117229
 20
2738.447307773708
 11
1750.1499487859123
 21
2738.6093353188844
  0
LINE
  8
_0-2_
  6
CONTINUOUS
 62
    3
 10
1750.1499487859123
 20
2738.6093353188844
 11
1750.0519393061331
 21
2738.7713334659206
  0
LINE
  8
_0-2_
  6
CONTINUOUS
 62
    3
 10
1750.0519393061331
 20
2738.7713334659206
 11
1749.955277677891
 21
2738.9333022148144
  0
LINE
  8
_0-2_
  6
CONTINUOUS
 62
    3
 10
1749.955277677891
 20
2738.9333022148144
 11
1749.8599639011868
 21
2739.0952415655674
  0
LINE
  8
_0-2_
  6
CONTINUOUS
 62
    3
 10
1749.8599639011868
 20
2739.0952415655674
 11
1749.7659979760197
 21
2739.2571515181789
  0
LINE
  8
_0-2_
  6
CONTINUOUS
 62
    3
 10
1749.7659979760197
 20
2739.2571515181789
 11
1749.6733799023905
 21
2739.4190320726489
  0
LINE
  8
_0-2_
  6
CONTINUOUS
 62
    3
 10
1749.6733799023905
 20
2739.4190320726489
 11
1749.5821096802983
 21
2739.5808832289772
  0
LINE
  8
_0-2_
  6
CONTINUOUS
 62
    3
 10
1749.5821096802983
 20
2739.5808832289772
 11
1749.4921873097442
 21
2739.742704987164
  0
LINE
  8
_0-2_
  6
CONTINUOUS
 62
    3
 10
1749.4921873097442
 20
2739.742704987164
 11
1749.403612790727
 21
2739.9044973472101
  0
LINE
  8
_0-2_
  6
CONTINUOUS
 62
    3
 10
1749.403612790727
 20
2739.9044973472101
 11
1749.3163861232479
 21
2740.0662603091137
  0
LINE
  8
_0-2_
  6
CONTINUOUS
 62
    3
 10
1749.3163861232479
 20
2740.0662603091137
 11
1749.2305073073057
 21
2740.2279938728766
  0
LINE
  8
_0-2_
  6
CONTINUOUS
 62
    3
 10
1749.2305073073057
 20
2740.2279938728766
 11
1749.1459763429011
 21
2740.389698038498
  0
LINE
  8
_0-2_
  6
CONTINUOUS
 62
    3
 10
1749.1459763429011
 20
2740.389698038498
 11
1749.0627932300342
 21
2740.5513728059768
  0
LINE
  8
_0-2_
  6
CONTINUOUS
 62
    3
 10
1749.0627932300342
 20
2740.5513728059768
 11
1748.9809579687048
 21
2740.7130181753155
  0
LINE
  8
_0-2_
  6
CONTINUOUS
 62
    3
 10
1748.9809579687048
 20
2740.7130181753155
 11
1748.9004705589127
 21
2740.8746341465126
  0
LINE
  8
_0-2_
  6
CONTINUOUS
 62
    3
 10
1748.9004705589127
 20
2740.8746341465126
 11
1748.8213310006583
 21
2741.0362207195681
  0
LINE
  8
_0-2_
  6
CONTINUOUS
 62
    3
 10
1748.8213310006583
 20
2741.0362207195681
 11
1748.7435392939415
 21
2741.1977778944815
  0
LINE
  8
_0-2_
  6
CONTINUOUS
 62
    3
 10
1748.7435392939415
 20
2741.1977778944815
 11
1748.6670954387619
 21
2741.3593056712543
  0
LINE
  8
_0-2_
  6
CONTINUOUS
 62
    3
 10
1748.6670954387619
 20
2741.3593056712543
 11
1748.5924557248009
 21
2741.5207844949591
  0
LINE
  8
_0-2_
  6
CONTINUOUS
 62
    3
 10
1748.5924557248009
 20
2741.5207844949591
 11
1748.5200764417395
 21
2741.682194810669
  0
LINE
  8
_0-2_
  6
CONTINUOUS
 62
    3
 10
1748.5200764417395
 20
2741.682194810669
 11
1748.4499575895779
 21
2741.8435366183853
  0
LINE
  8
_0-2_
  6
CONTINUOUS
 62
    3
 10
1748.4499575895779
 20
2741.8435366183853
 11
1748.3820991683162
 21
2742.0048099181072
  0
LINE
  8
_0-2_
  6
CONTINUOUS
 62
    3
 10
1748.3820991683162
 20
2742.0048099181072
 11
1748.3165011779538
 21
2742.1660147098346
  0
LINE
  8
_0-2_
  6
CONTINUOUS
 62
    3
 10
1748.3165011779538
 20
2742.1660147098346
 11
1748.2531636184913
 21
2742.3271509935676
  0
LINE
  8
_0-2_
  6
CONTINUOUS
 62
    3
 10
1748.2531636184913
 20
2742.3271509935676
 11
1748.1920864899284
 21
2742.4882187693061
  0
LINE
  8
_0-2_
  6
CONTINUOUS
 62
    3
 10
1748.1920864899284
 20
2742.4882187693061
 11
1748.1332697922653
 21
2742.6492180370506
  0
LINE
  8
_0-2_
  6
CONTINUOUS
 62
    3
 10
1748.1332697922653
 20
2742.6492180370506
 11
1748.0767135255019
 21
2742.8101487968015
  0
LINE
  8
_0-2_
  6
CONTINUOUS
 62
    3
 10
1748.0767135255019
 20
2742.8101487968015
 11
1748.0224176896379
 21
2742.9710110485576
  0
LINE
  8
_0-2_
  6
CONTINUOUS
 62
    3
 10
1748.0224176896379
 20
2742.9710110485576
 11
1747.9703822846736
 21
2743.1318047923191
  0
LINE
  8
_0-2_
  6
CONTINUOUS
 62
    3
 10
1747.9703822846736
 20
2743.1318047923191
 11
1747.9206073106091
 21
2743.2925300280863
  0
LINE
  8
_0-2_
  6
CONTINUOUS
 62
    3
 10
1747.9206073106091
 20
2743.2925300280863
 11
1747.8730927674442
 21
2743.4531867558594
  0
LINE
  8
_0-2_
  6
CONTINUOUS
 62
    3
 10
1747.8730927674442
 20
2743.4531867558594
 11
1747.827838655179
 21
2743.6137749756381
  0
LINE
  8
_0-2_
  6
CONTINUOUS
 62
    3
 10
1747.827838655179
 20
2743.6137749756381
 11
1747.7848449738135
 21
2743.7742946874228
  0
LINE
  8
_0-2_
  6
CONTINUOUS
 62
    3
 10
1747.7848449738135
 20
2743.7742946874228
 11
1747.7441117233475
 21
2743.934745891213
  0
LINE
  8
_0-2_
  6
CONTINUOUS
 62
    3
 10
1747.7441117233475
 20
2743.934745891213
 11
1747.7056389037812
 21
2744.0951285870087
  0
LINE
  8
_0-2_
  6
CONTINUOUS
 62
    3
 10
1747.7056389037812
 20
2744.0951285870087
 11
1747.669426515115
 21
2744.2554427748105
  0
LINE
  8
_0-2_
  6
CONTINUOUS
 62
    3
 10
1747.669426515115
 20
2744.2554427748105
 11
1747.6354745573481
 21
2744.4156884546173
  0
LINE
  8
_0-2_
  6
CONTINUOUS
 62
    3
 10
1747.6354745573481
 20
2744.4156884546173
 11
1747.6037830304808
 21
2744.5758656264306
  0
LINE
  8
_0-2_
  6
CONTINUOUS
 62
    3
 10
1747.6037830304808
 20
2744.5758656264306
 11
1747.5743519345133
 21
2744.7359742902495
  0
LINE
  8
_0-2_
  6
CONTINUOUS
 62
    3
 10
1747.5743519345133
 20
2744.7359742902495
 11
1747.5471812694454
 21
2744.8960144460739
  0
LINE
  8
_0-2_
  6
CONTINUOUS
 62
    3
 10
1747.5471812694454
 20
2744.8960144460739
 11
1747.5222710352773
 21
2745.0559860939038
  0
LINE
  8
_0-2_
  6
CONTINUOUS
 62
    3
 10
1747.5222710352773
 20
2745.0559860939038
 11
1747.4996212320088
 21
2745.2158892337402
  0
LINE
  8
_0-2_
  6
CONTINUOUS
 62
    3
 10
1747.4996212320088
 20
2745.2158892337402
 11
1747.4792318596401
 21
2745.3757238655812
  0
LINE
  8
_0-2_
  6
CONTINUOUS
 62
    3
 10
1747.4792318596401
 20
2745.3757238655812
 11
1747.461102918171
 21
2745.5354899894282
  0
LINE
  8
_0-2_
  6
CONTINUOUS
 62
    3
 10
1747.461102918171
 20
2745.5354899894282
 11
1747.4452344076017
 21
2745.6951876052813
  0
LINE
  8
_0-2_
  6
CONTINUOUS
 62
    3
 10
1747.4452344076017
 20
2745.6951876052813
 11
1747.4316263279318
 21
2745.8548167131403
  0
LINE
  8
_0-2_
  6
CONTINUOUS
 62
    3
 10
1747.4316263279318
 20
2745.8548167131403
 11
1747.4202786791616
 21
2746.0143773130039
  0
LINE
  8
_0-2_
  6
CONTINUOUS
 62
    3
 10
1747.4202786791616
 20
2746.0143773130039
 11
1747.4111914612913
 21
2746.1738694048745
  0
LINE
  8
_0-2_
  6
CONTINUOUS
 62
    3
 10
1747.4111914612913
 20
2746.1738694048745
 11
1747.4043646743207
 21
2746.3332929887501
  0
LINE
  8
_0-2_
  6
CONTINUOUS
 62
    3
 10
1747.4043646743207
 20
2746.3332929887501
 11
1747.3997983182494
 21
2746.4926480646318
  0
LINE
  8
_0-2_
  6
CONTINUOUS
 62
    3
 10
1747.3997983182494
 20
2746.4926480646318
 11
1747.397492393078
 21
2746.6519346325185
  0
LINE
  8
_0-2_
  6
CONTINUOUS
 62
    3
 10
1747.397492393078
 20
2746.6519346325185
 11
1747.3974468988063
 21
2746.8111526924117
  0
LINE
  8
_0-2_
  6
CONTINUOUS
 62
    3
 10
1747.3974468988063
 20
2746.8111526924117
 11
1747.399661835434
 21
2746.9703022443105
  0
LINE
  8
_0-2_
  6
CONTINUOUS
 62
    3
 10
1747.399661835434
 20
2746.9703022443105
 11
1747.4041372029617
 21
2747.1293832882147
  0
LINE
  8
_0-2_
  6
CONTINUOUS
 62
    3
 10
1747.4041372029617
 20
2747.1293832882147
 11
1747.4108730013891
 21
2747.2883958241246
  0
LINE
  8
_0-2_
  6
CONTINUOUS
 62
    3
 10
1747.4108730013891
 20
2747.2883958241246
 11
1747.4198692307159
 21
2747.4473398520404
  0
LINE
  8
_0-2_
  6
CONTINUOUS
 62
    3
 10
1747.4198692307159
 20
2747.4473398520404
 11
1747.4311258909424
 21
2747.6062153719618
  0
LINE
  8
_0-2_
  6
CONTINUOUS
 62
    3
 10
1747.4311258909424
 20
2747.6062153719618
 11
1747.4446429820687
 21
2747.7650223838891
  0
LINE
  8
_0-2_
  6
CONTINUOUS
 62
    3
 10
1747.4446429820687
 20
2747.7650223838891
 11
1747.4604205040946
 21
2747.9237608878211
  0
LINE
  8
_0-2_
  6
CONTINUOUS
 62
    3
 10
1747.4604205040946
 20
2747.9237608878211
 11
1747.4784584570202
 21
2748.08243088376
  0
LINE
  8
_0-2_
  6
CONTINUOUS
 62
    3
 10
1747.4784584570202
 20
2748.08243088376
 11
1747.4987568408455
 21
2748.2410323717045
  0
LINE
  8
_0-2_
  6
CONTINUOUS
 62
    3
 10
1747.4987568408455
 20
2748.2410323717045
 11
1747.5213156555706
 21
2748.3995653516549
  0
LINE
  8
_0-2_
  6
CONTINUOUS
 62
    3
 10
1747.5213156555706
 20
2748.3995653516549
 11
1747.5461349011953
 21
2748.55802982361
  0
LINE
  8
_0-2_
  6
CONTINUOUS
 62
    3
 10
1747.5461349011953
 20
2748.55802982361
 11
1747.5732145777197
 21
2748.7164257875711
  0
LINE
  8
_0-2_
  6
CONTINUOUS
 62
    3
 10
1747.5732145777197
 20
2748.7164257875711
 11
1747.6025546851433
 21
2748.8747532435391
  0
LINE
  8
_0-2_
  6
CONTINUOUS
 62
    3
 10
1747.6025546851433
 20
2748.8747532435391
 11
1747.6341552234671
 21
2749.0330121915113
  0
LINE
  8
_0-2_
  6
CONTINUOUS
 62
    3
 10
1747.6341552234671
 20
2749.0330121915113
 11
1747.6680161926906
 21
2749.1912026314903
  0
LINE
  8
_0-2_
  6
CONTINUOUS
 62
    3
 10
1747.6680161926906
 20
2749.1912026314903
 11
1747.7041375928136
 21
2749.3493245634736
  0
LINE
  8
_0-2_
  6
CONTINUOUS
 62
    3
 10
1747.7041375928136
 20
2749.3493245634736
 11
1747.7425194238363
 21
2749.5073779874638
  0
LINE
  8
_0-2_
  6
CONTINUOUS
 62
    3
 10
1747.7425194238363
 20
2749.5073779874638
 11
1747.7831616857586
 21
2749.6653629034599
  0
LINE
  8
_0-2_
  6
CONTINUOUS
 62
    3
 10
1747.7831616857586
 20
2749.6653629034599
 11
1747.8260643785807
 21
2749.8232793114607
  0
LINE
  8
_0-2_
  6
CONTINUOUS
 62
    3
 10
1747.8260643785807
 20
2749.8232793114607
 11
1747.8712275023026
 21
2749.9811272114675
  0
LINE
  8
_0-2_
  6
CONTINUOUS
 62
    3
 10
1747.8712275023026
 20
2749.9811272114675
 11
1747.9186510569239
 21
2750.1389066034799
  0
LINE
  8
_0-2_
  6
CONTINUOUS
 62
    3
 10
1747.9186510569239
 20
2750.1389066034799
 11
1747.9683350424448
 21
2750.2966174874982
  0
LINE
  8
_0-2_
  6
CONTINUOUS
 62
    3
 10
1747.9683350424448
 20
2750.2966174874982
 11
1748.0202794588654
 21
2750.4542598635226
  0
LINE
  8
_0-2_
  6
CONTINUOUS
 62
    3
 10
1748.0202794588654
 20
2750.4542598635226
 11
1748.0744843061857
 21
2750.6118337315525
  0
LINE
  8
_0-2_
  6
CONTINUOUS
 62
    3
 10
1748.0744843061857
 20
2750.6118337315525
 11
1748.1309495844059
 21
2750.7693390915883
  0
LINE
  8
_0-2_
  6
CONTINUOUS
 62
    3
 10
1748.1309495844059
 20
2750.7693390915883
 11
1748.1896752935256
 21
2750.9267759436298
  0
LINE
  8
_0-2_
  6
CONTINUOUS
 62
    3
 10
1748.1896752935256
 20
2750.9267759436298
 11
1748.2506614335448
 21
2751.0841442876767
  0
LINE
  8
_0-2_
  6
CONTINUOUS
 62
    3
 10
1748.2506614335448
 20
2751.0841442876767
 11
1748.3139080044639
 21
2751.2414441237293
  0
LINE
  8
_0-2_
  6
CONTINUOUS
 62
    3
 10
1748.3139080044639
 20
2751.2414441237293
 11
1748.3794150062827
 21
2751.3986754517873
  0
LINE
  8
_0-2_
  6
CONTINUOUS
 62
    3
 10
1748.3794150062827
 20
2751.3986754517873
 11
1748.4471824390012
 21
2751.5558382718514
  0
LINE
  8
_0-2_
  6
CONTINUOUS
 62
    3
 10
1748.4471824390012
 20
2751.5558382718514
 11
1748.5167303135813
 21
2751.7129804286355
  0
LINE
  8
_0-2_
  6
CONTINUOUS
 62
    3
 10
1748.5167303135813
 20
2751.7129804286355
 11
1748.5875786409858
 21
2751.8701497668553
  0
LINE
  8
_0-2_
  6
CONTINUOUS
 62
    3
 10
1748.5875786409858
 20
2751.8701497668553
 11
1748.659727421214
 21
2752.0273462865098
  0
LINE
  8
_0-2_
  6
CONTINUOUS
 62
    3
 10
1748.659727421214
 20
2752.0273462865098
 11
1748.7331766542666
 21
2752.1845699875989
  0
LINE
  8
_0-2_
  6
CONTINUOUS
 62
    3
 10
1748.7331766542666
 20
2752.1845699875989
 11
1748.8079263401432
 21
2752.3418208701237
  0
LINE
  8
_0-2_
  6
CONTINUOUS
 62
    3
 10
1748.8079263401432
 20
2752.3418208701237
 11
1748.883976478844
 21
2752.4990989340831
  0
LINE
  8
_0-2_
  6
CONTINUOUS
 62
    3
 10
1748.883976478844
 20
2752.4990989340831
 11
1748.961327070369
 21
2752.6564041794782
  0
LINE
  8
_0-2_
  6
CONTINUOUS
 62
    3
 10
1748.961327070369
 20
2752.6564041794782
 11
1749.0399781147175
 21
2752.8137366063074
  0
LINE
  8
_0-2_
  6
CONTINUOUS
 62
    3
 10
1749.0399781147175
 20
2752.8137366063074
 11
1749.1199296118905
 21
2752.9710962145714
  0
LINE
  8
_0-2_
  6
CONTINUOUS
 62
    3
 10
1749.1199296118905
 20
2752.9710962145714
 11
1749.2011815618876
 21
2753.1284830042709
  0
LINE
  8
_0-2_
  6
CONTINUOUS
 62
    3
 10
1749.2011815618876
 20
2753.1284830042709
 11
1749.2837339647085
 21
2753.2858969754056
  0
LINE
  8
_0-2_
  6
CONTINUOUS
 62
    3
 10
1749.2837339647085
 20
2753.2858969754056
 11
1749.3675868203536
 21
2753.443338127975
  0
LINE
  8
_0-2_
  6
CONTINUOUS
 62
    3
 10
1749.3675868203536
 20
2753.443338127975
 11
1749.4527401288228
 21
2753.60080646198
  0
LINE
  8
_0-2_
  6
CONTINUOUS
 62
    3
 10
1749.4527401288228
 20
2753.60080646198
 11
1749.5391938901162
 21
2753.7583019774193
  0
LINE
  8
_0-2_
  6
CONTINUOUS
 62
    3
 10
1749.5391938901162
 20
2753.7583019774193
 11
1749.6269481042336
 21
2753.9158246742945
  0
LINE
  8
_0-2_
  6
CONTINUOUS
 62
    3
 10
1749.6269481042336
 20
2753.9158246742945
 11
1749.7160027711748
 21
2754.073374552604
  0
LINE
  8
_0-2_
  6
CONTINUOUS
 62
    3
 10
1749.7160027711748
 20
2754.073374552604
 11
1749.8063578909405
 21
2754.2309516123487
  0
LINE
  8
_0-2_
  6
CONTINUOUS
 62
    3
 10
1749.8063578909405
 20
2754.2309516123487
 11
1749.8980134635303
 21
2754.3885558535285
  0
LINE
  8
_0-2_
  6
CONTINUOUS
 62
    3
 10
1749.8980134635303
 20
2754.3885558535285
 11
1749.9909694889438
 21
2754.5461872761425
  0
LINE
  8
_0-2_
  6
CONTINUOUS
 62
    3
 10
1749.9909694889438
 20
2754.5461872761425
 11
1750.0852259671815
 21
2754.7038458801921
  0
LINE
  8
_0-2_
  6
CONTINUOUS
 62
    3
 10
1750.0852259671815
 20
2754.7038458801921
 11
1750.1807828982433
 21
2754.8615316656769
  0
LINE
  8
_0-2_
  6
CONTINUOUS
 62
    3
 10
1750.1807828982433
 20
2754.8615316656769
 11
1750.2776402821294
 21
2755.0192446325968
  0
LINE
  8
_0-2_
  6
CONTINUOUS
 62
    3
 10
1750.2776402821294
 20
2755.0192446325968
 11
1750.3757981188394
 21
2755.1769847809514
  0
LINE
  8
_0-2_
  6
CONTINUOUS
 62
    3
 10
1750.3757981188394
 20
2755.1769847809514
 11
1750.4752564083733
 21
2755.3347521107412
  0
LINE
  8
_0-2_
  6
CONTINUOUS
 62
    3
 10
1750.4752564083733
 20
2755.3347521107412
 11
1750.5760151507316
 21
2755.4925466219665
  0
LINE
  8
_0-2_
  6
CONTINUOUS
 62
    3
 10
1750.5760151507316
 20
2755.4925466219665
 11
1750.6780743459135
 21
2755.6503683146266
  0
LINE
  8
_0-2_
  6
CONTINUOUS
 62
    3
 10
1750.6780743459135
 20
2755.6503683146266
 11
1750.78143399392
 21
2755.8082171887208
  0
LINE
  8
_0-2_
  6
CONTINUOUS
 62
    3
 10
1750.78143399392
 20
2755.8082171887208
 11
1750.8860940947502
 21
2755.9660932442507
  0
LINE
  8
_0-2_
  6
CONTINUOUS
 62
    3
 10
1750.8860940947502
 20
2755.9660932442507
 11
1750.9920546484047
 21
2756.1239964812153
  0
LINE
  8
_0-2_
  6
CONTINUOUS
 62
    3
 10
1750.9920546484047
 20
2756.1239964812153
 11
1751.0993156548834
 21
2756.2819268996154
  0
LINE
  8
_0-2_
  6
CONTINUOUS
 62
    3
 10
1751.0993156548834
 20
2756.2819268996154
 11
1751.207877114186
 21
2756.4398844994503
  0
LINE
  8
_0-2_
  6
CONTINUOUS
 62
    3
 10
1751.207877114186
 20
2756.4398844994503
 11
1751.3177390263127
 21
2756.5978692807198
  0
LINE
  8
_0-2_
  6
CONTINUOUS
 62
    3
 10
1751.3177390263127
 20
2756.5978692807198
 11
1751.4289013912635
 21
2756.7558812434249
  0
LINE
  8
_0-2_
  6
CONTINUOUS
 62
    3
 10
1751.4289013912635
 20
2756.7558812434249
 11
1751.5413642090384
 21
2756.9139203875648
  0
LINE
  8
_0-2_
  6
CONTINUOUS
 62
    3
 10
1751.5413642090384
 20
2756.9139203875648
 11
1751.6551274796373
 21
2757.0719867131397
  0
LINE
  8
_0-2_
  6
CONTINUOUS
 62
    3
 10
1751.6551274796373
 20
2757.0719867131397
 11
1751.7701912030602
 21
2757.2300802201494
  0
LINE
  8
_0-2_
  6
CONTINUOUS
 62
    3
 10
1751.7701912030602
 20
2757.2300802201494
 11
1751.8865553793075
 21
2757.3882009085946
  0
LINE
  8
_0-2_
  6
CONTINUOUS
 62
    3
 10
1751.8865553793075
 20
2757.3882009085946
 11
1752.0042200083785
 21
2757.5463487784746
  0
LINE
  8
_0-2_
  6
CONTINUOUS
 62
    3
 10
1752.0042200083785
 20
2757.5463487784746
 11
1752.1231850902736
 21
2757.7045238297897
  0
LINE
  8
_0-2_
  6
CONTINUOUS
 62
    3
 10
1752.1231850902736
 20
2757.7045238297897
 11
1752.2434506249929
 21
2757.8627260625399
  0
LINE
  8
_0-2_
  6
CONTINUOUS
 62
    3
 10
1752.2434506249929
 20
2757.8627260625399
 11
1752.3650166125362
 21
2758.0209554767248
  0
LINE
  8
_0-2_
  6
CONTINUOUS
 62
    3
 10
1752.3650166125362
 20
2758.0209554767248
 11
1752.4878830529037
 21
2758.1792120723449
  0
LINE
  8
_0-2_
  6
CONTINUOUS
 62
    3
 10
1752.4878830529037
 20
2758.1792120723449
 11
1752.6120499460949
 21
2758.3374958493996
  0
LINE
  8
_0-2_
  6
CONTINUOUS
 62
    3
 10
1752.6120499460949
 20
2758.3374958493996
 11
1752.7375172921109
 21
2758.4958068078904
  0
LINE
  8
_0-2_
  6
CONTINUOUS
 62
    3
 10
1752.7375172921109
 20
2758.4958068078904
 11
1752.8642850909505
 21
2758.6541449478145
  0
LINE
  8
_0-2_
  6
CONTINUOUS
 62
    3
 10
1752.8642850909505
 20
2758.6541449478145
 11
1752.9923533426145
 21
2758.8125102691756
  0
LINE
  8
_0-2_
  6
CONTINUOUS
 62
    3
 10
1752.9923533426145
 20
2758.8125102691756
 11
1753.1217220471024
 21
2758.97090277197
  0
LINE
  8
_0-2_
  6
CONTINUOUS
 62
    3
 10
1753.1217220471024
 20
2758.97090277197
 11
1753.2523912044142
 21
2759.1293224562005
  0
LINE
  8
_0-2_
  6
CONTINUOUS
 62
    3
 10
1753.2523912044142
 20
2759.1293224562005
 11
1753.3843608145501
 21
2759.2877693218657
  0
LINE
  8
_0-2_
  6
CONTINUOUS
 62
    3
 10
1753.3843608145501
 20
2759.2877693218657
 11
1753.5176308775101
 21
2759.4462433689655
  0
LINE
  8
_0-2_
  6
CONTINUOUS
 62
    3
 10
1753.5176308775101
 20
2759.4462433689655
 11
1753.6522013932945
 21
2759.6047445975005
  0
LINE
  8
_0-2_
  6
CONTINUOUS
 62
    3
 10
1753.6522013932945
 20
2759.6047445975005
 11
1753.7880723619026
 21
2759.7632730074706
  0
LINE
  8
_0-2_
  6
CONTINUOUS
 62
    3
 10
1753.7880723619026
 20
2759.7632730074706
 11
1753.9252437833347
 21
2759.9218285988763
  0
LINE
  8
_0-2_
  6
CONTINUOUS
 62
    3
 10
1753.9252437833347
 20
2759.9218285988763
 11
1754.0637156575913
 21
2760.0804113717163
  0
LINE
  8
_0-2_
  6
CONTINUOUS
 62
    3
 10
1754.0637156575913
 20
2760.0804113717163
 11
1754.2034879846715
 21
2760.2390213259919
  0
LINE
  8
_0-2_
  6
CONTINUOUS
 62
    3
 10
1754.2034879846715
 20
2760.2390213259919
 11
1754.3445607645763
 21
2760.3976584617021
  0
LINE
  8
_0-2_
  6
CONTINUOUS
 62
    3
 10
1754.3445607645763
 20
2760.3976584617021
 11
1754.486933997305
 21
2760.5563227788471
  0
LINE
  8
_0-2_
  6
CONTINUOUS
 62
    3
 10
1754.486933997305
 20
2760.5563227788471
 11
1754.6306076828578
 21
2760.7150142774276
  0
LINE
  8
_0-2_
  6
CONTINUOUS
 62
    3
 10
1754.6306076828578
 20
2760.7150142774276
 11
1754.7755818212345
 21
2760.8737329574428
  0
LINE
  8
_0-2_
  6
CONTINUOUS
 62
    3
 10
1754.7755818212345
 20
2760.8737329574428
 11
1754.9218564124353
 21
2761.0324788188927
  0
LINE
  8
_0-2_
  6
CONTINUOUS
 62
    3
 10
1754.9218564124353
 20
2761.0324788188927
 11
1755.0694314564603
 21
2761.1912518617783
  0
LINE
  8
_0-2_
  6
CONTINUOUS
 62
    3
 10
1755.0694314564603
 20
2761.1912518617783
 11
1755.2183069533094
 21
2761.3500520860989
  0
LINE
  8
_0-2_
  6
CONTINUOUS
 62
    3
 10
1755.2183069533094
 20
2761.3500520860989
 11
1755.3684829029821
 21
2761.5088794918538
  0
LINE
  8
_0-2_
  6
CONTINUOUS
 62
    3
 10
1755.3684829029821
 20
2761.5088794918538
 11
1755.5199593054795
 21
2761.6677340790443
  0
LINE
  8
_0-2_
  6
CONTINUOUS
 62
    3
 10
1755.5199593054795
 20
2761.6677340790443
 11
1755.6718523361772
 21
2761.8265177137955
  0
LINE
  8
_0-2_
  6
CONTINUOUS
 62
    3
 10
1755.6718523361772
 20
2761.8265177137955
 11
1755.8232781704519
 21
2761.9851322622335
  0
LINE
  8
_0-2_
  6
CONTINUOUS
 62
    3
 10
1755.8232781704519
 20
2761.9851322622335
 11
1755.9742368083037
 21
2762.1435777243587
  0
LINE
  8
_0-2_
  6
CONTINUOUS
 62
    3
 10
1755.9742368083037
 20
2762.1435777243587
 11
1756.1247282497325
 21
2762.3018541001697
  0
LINE
  8
_0-2_
  6
CONTINUOUS
 62
    3
 10
1756.1247282497325
 20
2762.3018541001697
 11
1756.2747524947383
 21
2762.459961389668
  0
LINE
  8
_0-2_
  6
CONTINUOUS
 62
    3
 10
1756.2747524947383
 20
2762.459961389668
 11
1756.424309543321
 21
2762.6178995928535
  0
LINE
  8
_0-2_
  6
CONTINUOUS
 62
    3
 10
1756.424309543321
 20
2762.6178995928535
 11
1756.5733993954809
 21
2762.7756687097253
  0
LINE
  8
_0-2_
  6
CONTINUOUS
 62
    3
 10
1756.5733993954809
 20
2762.7756687097253
 11
1756.7220220512177
 21
2762.9332687402839
  0
LINE
  8
_0-2_
  6
CONTINUOUS
 62
    3
 10
1756.7220220512177
 20
2762.9332687402839
 11
1756.8701775105317
 21
2763.0906996845297
  0
LINE
  8
_0-2_
  6
CONTINUOUS
 62
    3
 10
1756.8701775105317
 20
2763.0906996845297
 11
1757.0178657734227
 21
2763.2479615424613
  0
LINE
  8
_0-2_
  6
CONTINUOUS
 62
    3
 10
1757.0178657734227
 20
2763.2479615424613
 11
1757.1650868398906
 21
2763.4050543140802
  0
LINE
  8
_0-2_
  6
CONTINUOUS
 62
    3
 10
1757.1650868398906
 20
2763.4050543140802
 11
1757.3118407099353
 21
2763.5619779993863
  0
LINE
  8
_0-2_
  6
CONTINUOUS
 62
    3
 10
1757.3118407099353
 20
2763.5619779993863
 11
1757.458127383557
 21
2763.7187325983791
  0
LINE
  8
_0-2_
  6
CONTINUOUS
 62
    3
 10
1757.458127383557
 20
2763.7187325983791
 11
1757.6039468607562
 21
2763.8753181110583
  0
LINE
  8
_0-2_
  6
CONTINUOUS
 62
    3
 10
1757.6039468607562
 20
2763.8753181110583
 11
1757.749299141532
 21
2764.0317345374242
  0
LINE
  8
_0-2_
  6
CONTINUOUS
 62
    3
 10
1757.749299141532
 20
2764.0317345374242
 11
1757.8941842258851
 21
2764.1879818774769
  0
LINE
  8
_0-2_
  6
CONTINUOUS
 62
    3
 10
1757.8941842258851
 20
2764.1879818774769
 11
1758.0386021138152
 21
2764.3440601312163
  0
LINE
  8
_0-2_
  6
CONTINUOUS
 62
    3
 10
1758.0386021138152
 20
2764.3440601312163
 11
1758.1825528053221
 21
2764.4999692986426
  0
LINE
  8
_0-2_
  6
CONTINUOUS
 62
    3
 10
1758.1825528053221
 20
2764.4999692986426
 11
1758.326036300406
 21
2764.655709379756
  0
LINE
  8
_0-2_
  6
CONTINUOUS
 62
    3
 10
1758.326036300406
 20
2764.655709379756
 11
1758.4690525990673
 21
2764.8112803745562
  0
LINE
  8
_0-2_
  6
CONTINUOUS
 62
    3
 10
1758.4690525990673
 20
2764.8112803745562
 11
1758.6116017013051
 21
2764.9666822830427
  0
LINE
  8
_0-2_
  6
CONTINUOUS
 62
    3
 10
1758.6116017013051
 20
2764.9666822830427
 11
1758.7536836071204
 21
2765.1219151052155
  0
LINE
  8
_0-2_
  6
CONTINUOUS
 62
    3
 10
1758.7536836071204
 20
2765.1219151052155
 11
1758.8952983165123
 21
2765.276978841076
  0
LINE
  8
_0-2_
  6
CONTINUOUS
 62
    3
 10
1758.8952983165123
 20
2765.276978841076
 11
1759.0364458294814
 21
2765.4318734906237
  0
LINE
  8
_0-2_
  6
CONTINUOUS
 62
    3
 10
1759.0364458294814
 20
2765.4318734906237
 11
1759.1771261460276
 21
2765.5865990538568
  0
LINE
  8
_0-2_
  6
CONTINUOUS
 62
    3
 10
1759.1771261460276
 20
2765.5865990538568
 11
1759.3173392661506
 21
2765.7411555307772
  0
LINE
  8
_0-2_
  6
CONTINUOUS
 62
    3
 10
1759.3173392661506
 20
2765.7411555307772
 11
1759.4570851898507
 21
2765.8955429213847
  0
LINE
  8
_0-2_
  6
CONTINUOUS
 62
    3
 10
1759.4570851898507
 20
2765.8955429213847
 11
1759.596363917128
 21
2766.049761225679
  0
LINE
  8
_0-2_
  6
CONTINUOUS
 62
    3
 10
1759.596363917128
 20
2766.049761225679
 11
1759.7351754479823
 21
2766.2038104436597
  0
LINE
  8
_0-2_
  6
CONTINUOUS
 62
    3
 10
1759.7351754479823
 20
2766.2038104436597
 11
1759.8735197824135
 21
2766.3576905753275
  0
LINE
  8
_0-2_
  6
CONTINUOUS
 62
    3
 10
1759.8735197824135
 20
2766.3576905753275
 11
1760.0113969204217
 21
2766.5114016206817
  0
LINE
  8
_0-2_
  6
CONTINUOUS
 62
    3
 10
1760.0113969204217
 20
2766.5114016206817
 11
1760.1488068620072
 21
2766.6649435797226
  0
LINE
  8
_0-2_
  6
CONTINUOUS
 62
    3
 10
1760.1488068620072
 20
2766.6649435797226
 11
1760.2857496071695
 21
2766.8183164524507
  0
LINE
  8
_0-2_
  6
CONTINUOUS
 62
    3
 10
1760.2857496071695
 20
2766.8183164524507
 11
1760.4222251559088
 21
2766.9715202388652
  0
LINE
  8
_0-2_
  6
CONTINUOUS
 62
    3
 10
1760.4222251559088
 20
2766.9715202388652
 11
1760.5582335082252
 21
2767.1245549389669
  0
LINE
  8
_0-2_
  6
CONTINUOUS
 62
    3
 10
1760.5582335082252
 20
2767.1245549389669
 11
1760.6937746641186
 21
2767.2774205527548
  0
LINE
  8
_0-2_
  6
CONTINUOUS
 62
    3
 10
1760.6937746641186
 20
2767.2774205527548
 11
1760.828848623589
 21
2767.43011708023
  0
LINE
  8
_0-2_
  6
CONTINUOUS
 62
    3
 10
1760.828848623589
 20
2767.43011708023
 11
1760.9634553866363
 21
2767.582644521392
  0
LINE
  8
_0-2_
  6
CONTINUOUS
 62
    3
 10
1760.9634553866363
 20
2767.582644521392
 11
1761.0975949532603
 21
2767.7350028762407
  0
LINE
  8
_0-2_
  6
CONTINUOUS
 62
    3
 10
1761.0975949532603
 20
2767.7350028762407
 11
1761.2312673234621
 21
2767.8871921447758
  0
LINE
  8
_0-2_
  6
CONTINUOUS
 62
    3
 10
1761.2312673234621
 20
2767.8871921447758
 11
1761.364472497241
 21
2768.039212326998
  0
LINE
  8
_0-2_
  6
CONTINUOUS
 62
    3
 10
1761.364472497241
 20
2768.039212326998
 11
1761.4972104745962
 21
2768.1910634229062
  0
LINE
  8
_0-2_
  6
CONTINUOUS
 62
    3
 10
1761.4972104745962
 20
2768.1910634229062
 11
1761.6294812555288
 21
2768.3427454325019
  0
LINE
  8
_0-2_
  6
CONTINUOUS
 62
    3
 10
1761.6294812555288
 20
2768.3427454325019
 11
1761.7612848400381
 21
2768.494258355785
  0
LINE
  8
_0-2_
  6
CONTINUOUS
 62
    3
 10
1761.7612848400381
 20
2768.494258355785
 11
1761.8926212281247
 21
2768.6456021927543
  0
LINE
  8
_0-2_
  6
CONTINUOUS
 62
    3
 10
1761.8926212281247
 20
2768.6456021927543
 11
1762.023490419788
 21
2768.7967769434094
  0
LINE
  8
_0-2_
  6
CONTINUOUS
 62
    3
 10
1762.023490419788
 20
2768.7967769434094
 11
1762.1538924150284
 21
2768.9477826077523
  0
LINE
  8
_0-2_
  6
CONTINUOUS
 62
    3
 10
1762.1538924150284
 20
2768.9477826077523
 11
1762.2838272138461
 21
2769.0986191857819
  0
LINE
  8
_0-2_
  6
CONTINUOUS
 62
    3
 10
1762.2838272138461
 20
2769.0986191857819
 11
1762.4132948162405
 21
2769.2492866774978
  0
LINE
  8
_0-2_
  6
CONTINUOUS
 62
    3
 10
1762.4132948162405
 20
2769.2492866774978
 11
1762.5422952222125
 21
2769.399785082901
  0
LINE
  8
_0-2_
  6
CONTINUOUS
 62
    3
 10
1762.5422952222125
 20
2769.399785082901
 11
1762.6708284317606
 21
2769.5501144019909
  0
LINE
  8
_0-2_
  6
CONTINUOUS
 62
    3
 10
1762.6708284317606
 20
2769.5501144019909
 11
1762.7988944448866
 21
2769.7002746347675
  0
LINE
  8
_0-2_
  6
CONTINUOUS
 62
    3
 10
1762.7988944448866
 20
2769.7002746347675
 11
1762.9264932615893
 21
2769.850265781231
  0
LINE
  8
_0-2_
  6
CONTINUOUS
 62
    3
 10
1762.9264932615893
 20
2769.850265781231
 11
1763.0536248818689
 21
2770.0000878413812
  0
LINE
  8
_0-2_
  6
CONTINUOUS
 62
    3
 10
1763.0536248818689
 20
2770.0000878413812
 11
1763.1802893057256
 21
2770.1497408152181
  0
LINE
  8
_0-2_
  6
CONTINUOUS
 62
    3
 10
1763.1802893057256
 20
2770.1497408152181
 11
1763.3064865331589
 21
2770.2992247027419
  0
LINE
  8
_0-2_
  6
CONTINUOUS
 62
    3
 10
1763.3064865331589
 20
2770.2992247027419
 11
1763.4322165641697
 21
2770.4485395039519
  0
LINE
  8
_0-2_
  6
CONTINUOUS
 62
    3
 10
1763.4322165641697
 20
2770.4485395039519
 11
1763.5574793987576
 21
2770.5976852188492
  0
LINE
  8
_0-2_
  6
CONTINUOUS
 62
    3
 10
1763.5574793987576
 20
2770.5976852188492
 11
1763.6822750369224
 21
2770.7466618474332
  0
LINE
  8
_0-2_
  6
CONTINUOUS
 62
    3
 10
1763.6822750369224
 20
2770.7466618474332
 11
1763.8066034786641
 21
2770.895469389704
  0
LINE
  8
_0-2_
  6
CONTINUOUS
 62
    3
 10
1763.8066034786641
 20
2770.895469389704
 11
1763.9304647239828
 21
2771.0441078456615
  0
LINE
  8
_0-2_
  6
CONTINUOUS
 62
    3
 10
1763.9304647239828
 20
2771.0441078456615
 11
1764.0538587728788
 21
2771.1925772153054
  0
LINE
  8
_0-2_
  6
CONTINUOUS
 62
    3
 10
1764.0538587728788
 20
2771.1925772153054
 11
1764.1767856253518
 21
2771.3408774986365
  0
LINE
  8
_0-2_
  6
CONTINUOUS
 62
    3
 10
1764.1767856253518
 20
2771.3408774986365
 11
1764.2992452814015
 21
2771.4890086956539
  0
LINE
  8
_0-2_
  6
CONTINUOUS
 62
    3
 10
1764.2992452814015
 20
2771.4890086956539
 11
1764.4208410759798
 21
2771.63679131766
  0
LINE
  8
_0-2_
  6
CONTINUOUS
 62
    3
 10
1764.4208410759798
 20
2771.63679131766
 11
1764.5411763440388
 21
2771.7840458759556
  0
LINE
  8
_0-2_
  6
CONTINUOUS
 62
    3
 10
1764.5411763440388
 20
2771.7840458759556
 11
1764.6602510855773
 21
2771.9307723705388
  0
LINE
  8
_0-2_
  6
CONTINUOUS
 62
    3
 10
1764.6602510855773
 20
2771.9307723705388
 11
1764.7780653005966
 21
2772.0769708014127
  0
LINE
  8
_0-2_
  6
CONTINUOUS
 62
    3
 10
1764.7780653005966
 20
2772.0769708014127
 11
1764.8946189890962
 21
2772.2226411685751
  0
LINE
  8
_0-2_
  6
CONTINUOUS
 62
    3
 10
1764.8946189890962
 20
2772.2226411685751
 11
1765.0099121510757
 21
2772.367783472027
  0
LINE
  8
_0-2_
  6
CONTINUOUS
 62
    3
 10
1765.0099121510757
 20
2772.367783472027
 11
1765.1239447865355
 21
2772.5123977117673
  0
LINE
  8
_0-2_
  6
CONTINUOUS
 62
    3
 10
1765.1239447865355
 20
2772.5123977117673
 11
1765.2367168954756
 21
2772.6564838877985
  0
LINE
  8
_0-2_
  6
CONTINUOUS
 62
    3
 10
1765.2367168954756
 20
2772.6564838877985
 11
1765.3482284778961
 21
2772.8000420001172
  0
LINE
  8
_0-2_
  6
CONTINUOUS
 62
    3
 10
1765.3482284778961
 20
2772.8000420001172
 11
1765.4584795337964
 21
2772.9430720487253
  0
LINE
  8
_0-2_
  6
CONTINUOUS
 62
    3
 10
1765.4584795337964
 20
2772.9430720487253
 11
1765.5674700631771
 21
2773.0855740336233
  0
LINE
  8
_0-2_
  6
CONTINUOUS
 62
    3
 10
1765.5674700631771
 20
2773.0855740336233
 11
1765.6752000660381
 21
2773.2275479548107
  0
LINE
  8
_0-2_
  6
CONTINUOUS
 62
    3
 10
1765.6752000660381
 20
2773.2275479548107
 11
1765.7816695423794
 21
2773.368993812287
  0
LINE
  8
_0-2_
  6
CONTINUOUS
 62
    3
 10
1765.7816695423794
 20
2773.368993812287
 11
1765.886878492201
 21
2773.5099116060519
  0
LINE
  8
_0-2_
  6
CONTINUOUS
 62
    3
 10
1765.886878492201
 20
2773.5099116060519
 11
1765.9908269155026
 21
2773.6503013361062
  0
LINE
  8
_0-2_
  6
CONTINUOUS
 62
    3
 10
1765.9908269155026
 20
2773.6503013361062
 11
1766.0935148122844
 21
2773.7901630024503
  0
LINE
  8
_0-2_
  6
CONTINUOUS
 62
    3
 10
1766.0935148122844
 20
2773.7901630024503
 11
1766.1949421825466
 21
2773.9294966050829
  0
LINE
  8
_0-2_
  6
CONTINUOUS
 62
    3
 10
1766.1949421825466
 20
2773.9294966050829
 11
1766.2951090262891
 21
2774.0683021440054
  0
LINE
  8
_0-2_
  6
CONTINUOUS
 62
    3
 10
1766.2951090262891
 20
2774.0683021440054
 11
1766.3940153435115
 21
2774.2065796192164
  0
LINE
  8
_0-2_
  6
CONTINUOUS
 62
    3
 10
1766.3940153435115
 20
2774.2065796192164
 11
1766.4916611342144
 21
2774.3443290307168
  0
LINE
  8
_0-2_
  6
CONTINUOUS
 62
    3
 10
1766.4916611342144
 20
2774.3443290307168
 11
1766.5880463983972
 21
2774.4815503785071
  0
LINE
  8
_0-2_
  6
CONTINUOUS
 62
    3
 10
1766.5880463983972
 20
2774.4815503785071
 11
1766.6831711360605
 21
2774.6182436625854
  0
LINE
  8
_0-2_
  6
CONTINUOUS
 62
    3
 10
1766.6831711360605
 20
2774.6182436625854
 11
1766.7770353472044
 21
2774.7544088829536
  0
LINE
  8
_0-2_
  6
CONTINUOUS
 62
    3
 10
1766.7770353472044
 20
2774.7544088829536
 11
1766.869639031828
 21
2774.8900460396112
  0
LINE
  8
_0-2_
  6
CONTINUOUS
 62
    3
 10
1766.869639031828
 20
2774.8900460396112
 11
1766.9609821899321
 21
2775.0251551325573
  0
LINE
  8
_0-2_
  6
CONTINUOUS
 62
    3
 10
1766.9609821899321
 20
2775.0251551325573
 11
1767.0510648215163
 21
2775.1597361617928
  0
LINE
  8
_0-2_
  6
CONTINUOUS
 62
    3
 10
1767.0510648215163
 20
2775.1597361617928
 11
1767.1398869265804
 21
2775.2937891273177
  0
LINE
  8
_0-2_
  6
CONTINUOUS
 62
    3
 10
1767.1398869265804
 20
2775.2937891273177
 11
1767.2274485051253
 21
2775.427314029132
  0
LINE
  8
_0-2_
  6
CONTINUOUS
 62
    3
 10
1767.2274485051253
 20
2775.427314029132
 11
1767.31374955715
 21
2775.5603108672353
  0
LINE
  8
_0-2_
  6
CONTINUOUS
 62
    3
 10
1767.31374955715
 20
2775.5603108672353
 11
1767.3987900826551
 21
2775.6927796416276
  0
LINE
  8
_0-2_
  6
CONTINUOUS
 62
    3
 10
1767.3987900826551
 20
2775.6927796416276
 11
1767.4825700816407
 21
2775.8247203523092
  0
LINE
  8
_0-2_
  6
CONTINUOUS
 62
    3
 10
1767.4825700816407
 20
2775.8247203523092
 11
1767.5650895541062
 21
2775.9561329992803
  0
LINE
  8
_0-2_
  6
CONTINUOUS
 62
    3
 10
1767.5650895541062
 20
2775.9561329992803
 11
1767.646348500052
 21
2776.0870175825403
  0
LINE
  8
_0-2_
  6
CONTINUOUS
 62
    3
 10
1767.646348500052
 20
2776.0870175825403
 11
1767.7263469194779
 21
2776.2173741020888
  0
LINE
  8
_0-2_
  6
CONTINUOUS
 62
    3
 10
1767.7263469194779
 20
2776.2173741020888
 11
1767.8050848123844
 21
2776.3472025579276
  0
LINE
  8
_0-2_
  6
CONTINUOUS
 62
    3
 10
1767.8050848123844
 20
2776.3472025579276
 11
1767.8825621787705
 21
2776.476502950055
  0
LINE
  8
_0-2_
  6
CONTINUOUS
 62
    3
 10
1767.8825621787705
 20
2776.476502950055
 11
1767.9587790186374
 21
2776.6052752784717
  0
LINE
  8
_0-2_
  6
CONTINUOUS
 62
    3
 10
1767.9587790186374
 20
2776.6052752784717
 11
1768.0337353319846
 21
2776.7335195431779
  0
LINE
  8
_0-2_
  6
CONTINUOUS
 62
    3
 10
1768.0337353319846
 20
2776.7335195431779
 11
1768.1074311188115
 21
2776.861235744173
  0
LINE
  8
_0-2_
  6
CONTINUOUS
 62
    3
 10
1768.1074311188115
 20
2776.861235744173
 11
1768.1798663791189
 21
2776.9884238814575
  0
LINE
  8
_0-2_
  6
CONTINUOUS
 62
    3
 10
1768.1798663791189
 20
2776.9884238814575
 11
1768.2510411129067
 21
2777.115083955031
  0
LINE
  8
_0-2_
  6
CONTINUOUS
 62
    3
 10
1768.2510411129067
 20
2777.115083955031
 11
1768.3209553201746
 21
2777.2412159648934
  0
LINE
  8
_0-2_
  6
CONTINUOUS
 62
    3
 10
1768.3209553201746
 20
2777.2412159648934
 11
1768.3896090009225
 21
2777.3668199110452
  0
LINE
  8
_0-2_
  6
CONTINUOUS
 62
    3
 10
1768.3896090009225
 20
2777.3668199110452
 11
1768.4570021551508
 21
2777.4918957934869
  0
LINE
  8
_0-2_
  6
CONTINUOUS
 62
    3
 10
1768.4570021551508
 20
2777.4918957934869
 11
1768.5231347828594
 21
2777.6164436122172
  0
LINE
  8
_0-2_
  6
CONTINUOUS
 62
    3
 10
1768.5231347828594
 20
2777.6164436122172
 11
1768.5880068840481
 21
2777.7404633672368
  0
LINE
  8
_0-2_
  6
CONTINUOUS
 62
    3
 10
1768.5880068840481
 20
2777.7404633672368
 11
1768.6516184587172
 21
2777.8639550585458
  0
LINE
  8
_0-2_
  6
CONTINUOUS
 62
    3
 10
1768.6516184587172
 20
2777.8639550585458
 11
1768.7139695068663
 21
2777.9869186861433
  0
LINE
  8
_0-2_
  6
CONTINUOUS
 62
    3
 10
1768.7139695068663
 20
2777.9869186861433
 11
1768.7750600284958
 21
2778.1093542500303
  0
LINE
  8
_0-2_
  6
CONTINUOUS
 62
    3
 10
1768.7750600284958
 20
2778.1093542500303
 11
1768.8348900236056
 21
2778.2312617502066
  0
LINE
  8
_0-2_
  6
CONTINUOUS
 62
    3
 10
1768.8348900236056
 20
2778.2312617502066
 11
1768.8934594921955
 21
2778.3526411866724
  0
LINE
  8
_0-2_
  6
CONTINUOUS
 62
    3
 10
1768.8934594921955
 20
2778.3526411866724
 11
1768.9507684342655
 21
2778.4734925594275
  0
LINE
  8
_0-2_
  6
CONTINUOUS
 62
    3
 10
1768.9507684342655
 20
2778.4734925594275
 11
1769.0068168498158
 21
2778.5938158684712
  0
LINE
  8
_0-2_
  6
CONTINUOUS
 62
    3
 10
1769.0068168498158
 20
2778.5938158684712
 11
1769.0616047388467
 21
2778.7136111138043
  0
LINE
  8
_0-2_
  6
CONTINUOUS
 62
    3
 10
1769.0616047388467
 20
2778.7136111138043
 11
1769.1151321013572
 21
2778.8328782954259
  0
LINE
  8
_0-2_
  6
CONTINUOUS
 62
    3
 10
1769.1151321013572
 20
2778.8328782954259
 11
1769.1673989373485
 21
2778.9516174133382
  0
LINE
  8
_0-2_
  6
CONTINUOUS
 62
    3
 10
1769.1673989373485
 20
2778.9516174133382
 11
1769.2184052468197
 21
2779.0698284675386
  0
LINE
  8
_0-2_
  6
CONTINUOUS
 62
    3
 10
1769.2184052468197
 20
2779.0698284675386
 11
1769.2681510297714
 21
2779.1875114580284
  0
LINE
  8
_0-2_
  6
CONTINUOUS
 62
    3
 10
1769.2681510297714
 20
2779.1875114580284
 11
1769.3166362862032
 21
2779.3046663848077
  0
LINE
  8
_0-2_
  6
CONTINUOUS
 62
    3
 10
1769.3166362862032
 20
2779.3046663848077
 11
1769.3638610161152
 21
2779.4212932478758
  0
LINE
  8
_0-2_
  6
CONTINUOUS
 62
    3
 10
1769.3638610161152
 20
2779.4212932478758
 11
1769.4098252195072
 21
2779.537392047233
  0
LINE
  8
_0-2_
  6
CONTINUOUS
 62
    3
 10
1769.4098252195072
 20
2779.537392047233
 11
1769.4545288963798
 21
2779.65296278288
  0
LINE
  8
_0-2_
  6
CONTINUOUS
 62
    3
 10
1769.4545288963798
 20
2779.65296278288
 11
1769.4979720467322
 21
2779.7680054548159
  0
LINE
  8
_0-2_
  6
CONTINUOUS
 62
    3
 10
1769.4979720467322
 20
2779.7680054548159
 11
1769.5401546705652
 21
2779.8825200630408
  0
LINE
  8
_0-2_
  6
CONTINUOUS
 62
    3
 10
1769.5401546705652
 20
2779.8825200630408
 11
1769.5813872861095
 21
2779.9968209858844
  0
LINE
  8
_0-2_
  6
CONTINUOUS
 62
    3
 10
1769.5813872861095
 20
2779.9968209858844
 11
1769.6219804115963
 21
2780.1112226016749
  0
LINE
  8
_0-2_
  6
CONTINUOUS
 62
    3
 10
1769.6219804115963
 20
2780.1112226016749
 11
1769.6619340470261
 21
2780.2257249104132
  0
LINE
  8
_0-2_
  6
CONTINUOUS
 62
    3
 10
1769.6619340470261
 20
2780.2257249104132
 11
1769.7012481923985
 21
2780.3403279120994
  0
LINE
  8
_0-2_
  6
CONTINUOUS
 62
    3
 10
1769.7012481923985
 20
2780.3403279120994
 11
1769.7399228477134
 21
2780.4550316067325
  0
LINE
  8
_0-2_
  6
CONTINUOUS
 62
    3
 10
1769.7399228477134
 20
2780.4550316067325
 11
1769.7779580129711
 21
2780.5698359943135
  0
LINE
  8
_0-2_
  6
CONTINUOUS
 62
    3
 10
1769.7779580129711
 20
2780.5698359943135
 11
1769.8153536881714
 21
2780.6847410748423
  0
LINE
  8
_0-2_
  6
CONTINUOUS
 62
    3
 10
1769.8153536881714
 20
2780.6847410748423
 11
1769.8521098733145
 21
2780.7997468483177
  0
LINE
  8
_0-2_
  6
CONTINUOUS
 62
    3
 10
1769.8521098733145
 20
2780.7997468483177
 11
1769.8882265684001
 21
2780.9148533147413
  0
LINE
  8
_0-2_
  6
CONTINUOUS
 62
    3
 10
1769.8882265684001
 20
2780.9148533147413
 11
1769.9237037734288
 21
2781.0300604741124
  0
LINE
  8
_0-2_
  6
CONTINUOUS
 62
    3
 10
1769.9237037734288
 20
2781.0300604741124
 11
1769.9585414883995
 21
2781.1453683264308
  0
LINE
  8
_0-2_
  6
CONTINUOUS
 62
    3
 10
1769.9585414883995
 20
2781.1453683264308
 11
1769.9927397133133
 21
2781.2607768716962
  0
LINE
  8
_0-2_
  6
CONTINUOUS
 62
    3
 10
1769.9927397133133
 20
2781.2607768716962
 11
1770.0262984481692
 21
2781.3762861099099
  0
LINE
  8
_0-2_
  6
CONTINUOUS
 62
    3
 10
1770.0262984481692
 20
2781.3762861099099
 11
1770.0592176929683
 21
2781.491896041071
  0
LINE
  8
_0-2_
  6
CONTINUOUS
 62
    3
 10
1770.0592176929683
 20
2781.491896041071
 11
1770.09149744771
 21
2781.6076066651794
  0
LINE
  8
_0-2_
  6
CONTINUOUS
 62
    3
 10
1770.09149744771
 20
2781.6076066651794
 11
1770.1231377123943
 21
2781.7234179822353
  0
LINE
  8
_0-2_
  6
CONTINUOUS
 62
    3
 10
1770.1231377123943
 20
2781.7234179822353
 11
1770.1541384870211
 21
2781.8393299922391
  0
LINE
  8
_0-2_
  6
CONTINUOUS
 62
    3
 10
1770.1541384870211
 20
2781.8393299922391
 11
1770.1844997715907
 21
2781.9553426951898
  0
LINE
  8
_0-2_
  6
CONTINUOUS
 62
    3
 10
1770.1844997715907
 20
2781.9553426951898
 11
1770.2142215661029
 21
2782.0714560910883
  0
LINE
  8
_0-2_
  6
CONTINUOUS
 62
    3
 10
1770.2142215661029
 20
2782.0714560910883
 11
1770.2433038705581
 21
2782.1876701799338
  0
LINE
  8
_0-2_
  6
CONTINUOUS
 62
    3
 10
1770.2433038705581
 20
2782.1876701799338
 11
1770.2717466849558
 21
2782.3039849617271
  0
LINE
  8
_0-2_
  6
CONTINUOUS
 62
    3
 10
1770.2717466849558
 20
2782.3039849617271
 11
1770.2995500092959
 21
2782.4204004364683
  0
LINE
  8
_0-2_
  6
CONTINUOUS
 62
    3
 10
1770.2995500092959
 20
2782.4204004364683
 11
1770.326713843579
 21
2782.5369166041564
  0
LINE
  8
_0-2_
  6
CONTINUOUS
 62
    3
 10
1770.326713843579
 20
2782.5369166041564
 11
1770.3532381878044
 21
2782.6535334647929
  0
LINE
  8
_0-2_
  6
CONTINUOUS
 62
    3
 10
1770.3532381878044
 20
2782.6535334647929
 11
1770.3791230419729
 21
2782.7702510183758
  0
LINE
  8
_0-2_
  6
CONTINUOUS
 62
    3
 10
1770.3791230419729
 20
2782.7702510183758
 11
1770.4043684060839
 21
2782.887069264907
  0
LINE
  8
_0-2_
  6
CONTINUOUS
 62
    3
 10
1770.4043684060839
 20
2782.887069264907
 11
1770.4289742801373
 21
2783.0039882043857
  0
LINE
  8
_0-2_
  6
CONTINUOUS
 62
    3
 10
1770.4289742801373
 20
2783.0039882043857
 11
1770.4529406641336
 21
2783.1210078368113
  0
LINE
  8
_0-2_
  6
CONTINUOUS
 62
    3
 10
1770.4529406641336
 20
2783.1210078368113
 11
1770.4762675580723
 21
2783.2381281621847
  0
LINE
  8
_0-2_
  6
CONTINUOUS
 62
    3
 10
1770.4762675580723
 20
2783.2381281621847
 11
1770.498954961954
 21
2783.355349180506
  0
LINE
  8
_0-2_
  6
CONTINUOUS
 62
    3
 10
1770.498954961954
 20
2783.355349180506
 11
1770.5210028757783
 21
2783.4726708917742
  0
LINE
  8
_0-2_
  6
CONTINUOUS
 62
    3
 10
1770.5210028757783
 20
2783.4726708917742
 11
1770.5424112995454
 21
2783.5900932959903
  0
LINE
  8
_0-2_
  6
CONTINUOUS
 62
    3
 10
1770.5424112995454
 20
2783.5900932959903
 11
1770.563180233255
 21
2783.7076163931533
  0
LINE
  8
_0-2_
  6
CONTINUOUS
 62
    3
 10
1770.563180233255
 20
2783.7076163931533
 11
1770.5833096769072
 21
2783.8252401832647
  0
LINE
  8
_0-2_
  6
CONTINUOUS
 62
    3
 10
1770.5833096769072
 20
2783.8252401832647
 11
1770.6027996305022
 21
2783.9429646663234
  0
LINE
  8
_0-2_
  6
CONTINUOUS
 62
    3
 10
1770.6027996305022
 20
2783.9429646663234
 11
1770.6216500940398
 21
2784.0607898423291
  0
LINE
  8
_0-2_
  6
CONTINUOUS
 62
    3
 10
1770.6216500940398
 20
2784.0607898423291
 11
1770.6398610675201
 21
2784.1787157112822
  0
LINE
  8
_0-2_
  6
CONTINUOUS
 62
    3
 10
1770.6398610675201
 20
2784.1787157112822
 11
1770.657432550943
 21
2784.2967422731836
  0
LINE
  8
_0-2_
  6
CONTINUOUS
 62
    3
 10
1770.657432550943
 20
2784.2967422731836
 11
1770.6743645443084
 21
2784.4148695280319
  0
LINE
  8
_0-2_
  6
CONTINUOUS
 62
    3
 10
1770.6743645443084
 20
2784.4148695280319
 11
1770.6906570476167
 21
2784.5330974758281
  0
LINE
  8
_0-2_
  6
CONTINUOUS
 62
    3
 10
1770.6906570476167
 20
2784.5330974758281
 11
1770.7063100608675
 21
2784.6514261165712
  0
LINE
  8
_0-2_
  6
CONTINUOUS
 62
    3
 10
1770.7063100608675
 20
2784.6514261165712
 11
1770.7213235840613
 21
2784.7698554502622
  0
LINE
  8
_0-2_
  6
CONTINUOUS
 62
    3
 10
1770.7213235840613
 20
2784.7698554502622
 11
1770.7356976171973
 21
2784.888385476901
  0
LINE
  8
_0-2_
  6
CONTINUOUS
 62
    3
 10
1770.7356976171973
 20
2784.888385476901
 11
1770.7494321602762
 21
2785.0070161964868
  0
LINE
  8
_0-2_
  6
CONTINUOUS
 62
    3
 10
1770.7494321602762
 20
2785.0070161964868
 11
1770.7625272132977
 21
2785.12574760902
  0
LINE
  8
_0-2_
  6
CONTINUOUS
 62
    3
 10
1770.7625272132977
 20
2785.12574760902
 11
1770.774982776262
 21
2785.244579714501
  0
LINE
  8
_0-2_
  6
CONTINUOUS
 62
    3
 10
1770.774982776262
 20
2785.244579714501
 11
1770.7867988491689
 21
2785.3635125129294
  0
LINE
  8
_0-2_
  6
CONTINUOUS
 62
    3
 10
1770.7867988491689
 20
2785.3635125129294
 11
1770.7979754320186
 21
2785.4825460043053
  0
LINE
  8
_0-2_
  6
CONTINUOUS
 62
    3
 10
1770.7979754320186
 20
2785.4825460043053
 11
1770.8085125248108
 21
2785.601680188629
  0
LINE
  8
_0-2_
  6
CONTINUOUS
 62
    3
 10
1770.8085125248108
 20
2785.601680188629
 11
1770.8184101275456
 21
2785.7209150659
  0
LINE
  8
_0-2_
  6
CONTINUOUS
 62
    3
 10
1770.8184101275456
 20
2785.7209150659
 11
1770.8276682402229
 21
2785.840250636119
  0
LINE
  8
_0-2_
  6
CONTINUOUS
 62
    3
 10
1770.8276682402229
 20
2785.840250636119
 11
1770.8362868628433
 21
2785.9596868992844
  0
LINE
  8
_0-2_
  6
CONTINUOUS
 62
    3
 10
1770.8362868628433
 20
2785.9596868992844
 11
1770.844265995406
 21
2786.0792238553977
  0
LINE
  8
_0-2_
  6
CONTINUOUS
 62
    3
 10
1770.844265995406
 20
2786.0792238553977
 11
1770.8516056379117
 21
2786.1988615044588
  0
LINE
  8
_0-2_
  6
CONTINUOUS
 62
    3
 10
1770.8516056379117
 20
2786.1988615044588
 11
1770.8583057903597
 21
2786.3185998464674
  0
LINE
  8
_0-2_
  6
CONTINUOUS
 62
    3
 10
1770.8583057903597
 20
2786.3185998464674
 11
1770.8643664527506
 21
2786.4384388814233
  0
LINE
  8
_0-2_
  6
CONTINUOUS
 62
    3
 10
1770.8643664527506
 20
2786.4384388814233
 11
1770.869787625084
 21
2786.5583786093271
  0
LINE
  8
_0-2_
  6
CONTINUOUS
 62
    3
 10
1770.869787625084
 20
2786.5583786093271
 11
1770.8745693073602
 21
2786.6784190301778
  0
LINE
  8
_0-2_
  6
CONTINUOUS
 62
    3
 10
1770.8745693073602
 20
2786.6784190301778
 11
1770.8787114995791
 21
2786.7985601439759
  0
LINE
  8
_0-2_
  6
CONTINUOUS
 62
    3
 10
1770.8787114995791
 20
2786.7985601439759
 11
1770.8822142017407
 21
2786.9188019507228
  0
LINE
  8
_0-2_
  6
CONTINUOUS
 62
    3
 10
1770.8822142017407
 20
2786.9188019507228
 11
1770.885077413845
 21
2787.0391444504157
  0
LINE
  8
_0-2_
  6
CONTINUOUS
 62
    3
 10
1770.885077413845
 20
2787.0391444504157
 11
1770.8873011358919
 21
2787.159587643057
  0
LINE
  8
_0-2_
  6
CONTINUOUS
 62
    3
 10
1770.8873011358919
 20
2787.159587643057
 11
1770.8888853678811
 21
2787.2801315286451
  0
LINE
  8
_0-2_
  6
CONTINUOUS
 62
    3
 10
1770.8888853678811
 20
2787.2801315286451
 11
1770.8898301098134
 21
2787.4007761071812
  0
LINE
  8
_0-2_
  6
CONTINUOUS
 62
    3
 10
1770.8898301098134
 20
2787.4007761071812
 11
1770.8901742046155
 21
2787.5215156042404
  0
LINE
  8
_0-2_
  6
CONTINUOUS
 62
    3
 10
1770.8901742046155
 20
2787.5215156042404
 11
1770.8899564952144
 21
2787.6423442454006
  0
LINE
  8
_0-2_
  6
CONTINUOUS
 62
    3
 10
1770.8899564952144
 20
2787.6423442454006
 11
1770.8891769816103
 21
2787.7632620306599
  0
LINE
  8
_0-2_
  6
CONTINUOUS
 62
    3
 10
1770.8891769816103
 20
2787.7632620306599
 11
1770.8878356638033
 21
2787.8842689600197
  0
LINE
  8
_0-2_
  6
CONTINUOUS
 62
    3
 10
1770.8878356638033
 20
2787.8842689600197
 11
1770.8859325417934
 21
2788.0053650334798
  0
LINE
  8
_0-2_
  6
CONTINUOUS
 62
    3
 10
1770.8859325417934
 20
2788.0053650334798
 11
1770.8834676155802
 21
2788.1265502510396
  0
LINE
  8
_0-2_
  6
CONTINUOUS
 62
    3
 10
1770.8834676155802
 20
2788.1265502510396
 11
1770.880440885164
 21
2788.2478246126989
  0
LINE
  8
_0-2_
  6
CONTINUOUS
 62
    3
 10
1770.880440885164
 20
2788.2478246126989
 11
1770.8768523505451
 21
2788.3691881184586
  0
LINE
  8
_0-2_
  6
CONTINUOUS
 62
    3
 10
1770.8768523505451
 20
2788.3691881184586
 11
1770.872702011723
 21
2788.4906407683179
  0
LINE
  8
_0-2_
  6
CONTINUOUS
 62
    3
 10
1770.872702011723
 20
2788.4906407683179
 11
1770.8679898686978
 21
2788.6121825622777
  0
LINE
  8
_0-2_
  6
CONTINUOUS
 62
    3
 10
1770.8679898686978
 20
2788.6121825622777
 11
1770.8627159214693
 21
2788.733813500337
  0
LINE
  8
_0-2_
  6
CONTINUOUS
 62
    3
 10
1770.8627159214693
 20
2788.733813500337
 11
1770.8568801700385
 21
2788.8555335824963
  0
LINE
  8
_0-2_
  6
CONTINUOUS
 62
    3
 10
1770.8568801700385
 20
2788.8555335824963
 11
1770.8504826144044
 21
2788.9773428087556
  0
LINE
  8
_0-2_
  6
CONTINUOUS
 62
    3
 10
1770.8504826144044
 20
2788.9773428087556
 11
1770.8435232545671
 21
2789.0992411791149
  0
LINE
  8
_0-2_
  6
CONTINUOUS
 62
    3
 10
1770.8435232545671
 20
2789.0992411791149
 11
1770.836002090527
 21
2789.2212286935746
  0
LINE
  8
_0-2_
  6
CONTINUOUS
 62
    3
 10
1770.836002090527
 20
2789.2212286935746
 11
1770.8279191222837
 21
2789.3433053521339
  0
LINE
  8
_0-2_
  6
CONTINUOUS
 62
    3
 10
1770.8279191222837
 20
2789.3433053521339
 11
1770.8192743498375
 21
2789.4654711547937
  0
LINE
  8
_0-2_
  6
CONTINUOUS
 62
    3
 10
1770.8192743498375
 20
2789.4654711547937
 11
1770.8100677731882
 21
2789.587726101553
  0
LINE
  8
_0-2_
  6
CONTINUOUS
 62
    3
 10
1770.8100677731882
 20
2789.587726101553
 11
1770.800299392336
 21
2789.7100701924119
  0
LINE
  8
_0-2_
  6
CONTINUOUS
 62
    3
 10
1770.800299392336
 20
2789.7100701924119
 11
1770.7899692072808
 21
2789.8325034273712
  0
LINE
  8
_0-2_
  6
CONTINUOUS
 62
    3
 10
1770.7899692072808
 20
2789.8325034273712
 11
1770.7790772180224
 21
2789.9550258064305
  0
LINE
  8
_0-2_
  6
CONTINUOUS
 62
    3
 10
1770.7790772180224
 20
2789.9550258064305
 11
1770.7676234245614
 21
2790.0776373295903
  0
LINE
  8
_0-2_
  6
CONTINUOUS
 62
    3
 10
1770.7676234245614
 20
2790.0776373295903
 11
1770.7556078268972
 21
2790.2003379968487
  0
LINE
  8
_0-2_
  6
CONTINUOUS
 62
    3
 10
1770.7556078268972
 20
2790.2003379968487
 11
1770.7430304250297
 21
2790.323127808208
  0
LINE
  8
_0-2_
  6
CONTINUOUS
 62
    3
 10
1770.7430304250297
 20
2790.323127808208
 11
1770.7298912189594
 21
2790.4460067636674
  0
LINE
  8
_0-2_
  6
CONTINUOUS
 62
    3
 10
1770.7298912189594
 20
2790.4460067636674
 11
1770.7161902086862
 21
2790.5689748632262
  0
LINE
  8
_0-2_
  6
CONTINUOUS
 62
    3
 10
1770.7161902086862
 20
2790.5689748632262
 11
1770.7019273942096
 21
2790.6920321068856
  0
LINE
  8
_0-2_
  6
CONTINUOUS
 62
    3
 10
1770.7019273942096
 20
2790.6920321068856
 11
1770.6871027755305
 21
2790.8151784946444
  0
LINE
  8
_0-2_
  6
CONTINUOUS
 62
    3
 10
1770.6871027755305
 20
2790.8151784946444
 11
1770.6717163526482
 21
2790.9384140265038
  0
LINE
  8
_0-2_
  6
CONTINUOUS
 62
    3
 10
1770.6717163526482
 20
2790.9384140265038
 11
1770.6557681255626
 21
2791.0617387024627
  0
LINE
  8
_0-2_
  6
CONTINUOUS
 62
    3
 10
1770.6557681255626
 20
2791.0617387024627
 11
1770.6392580942743
 21
2791.1851525225215
  0
LINE
  8
_0-2_
  6
CONTINUOUS
 62
    3
 10
1770.6392580942743
 20
2791.1851525225215
 11
1770.6221862587831
 21
2791.3086554866804
  0
LINE
  8
_0-2_
  6
CONTINUOUS
 62
    3
 10
1770.6221862587831
 20
2791.3086554866804
 11
1770.6045526190883
 21
2791.4322475949393
  0
LINE
  8
_0-2_
  6
CONTINUOUS
 62
    3
 10
1770.6045526190883
 20
2791.4322475949393
 11
1770.5863571751911
 21
2791.5559288472987
  0
LINE
  8
_0-2_
  6
CONTINUOUS
 62
    3
 10
1770.5863571751911
 20
2791.5559288472987
 11
1770.5675999270902
 21
2791.6796992437571
  0
LINE
  8
_0-2_
  6
CONTINUOUS
 62
    3
 10
1770.5675999270902
 20
2791.6796992437571
 11
1770.548280874787
 21
2791.803558784316
  0
LINE
  8
_0-2_
  6
CONTINUOUS
 62
    3
 10
1770.548280874787
 20
2791.803558784316
 11
1770.5284000182805
 21
2791.9275074689749
  0
LINE
  8
_0-2_
  6
CONTINUOUS
 62
    3
 10
1770.5284000182805
 20
2791.9275074689749
 11
1770.5079573575711
 21
2792.0515452977338
  0
LINE
  8
_0-2_
  6
CONTINUOUS
 62
    3
 10
1770.5079573575711
 20
2792.0515452977338
 11
1770.4869528926586
 21
2792.1756722705923
  0
LINE
  8
_0-2_
  6
CONTINUOUS
 62
    3
 10
1770.4869528926586
 20
2792.1756722705923
 11
1770.4653866235431
 21
2792.2998883875516
  0
LINE
  8
_0-2_
  6
CONTINUOUS
 62
    3
 10
1770.4653866235431
 20
2792.2998883875516
 11
1770.4432585502245
 21
2792.4241936486101
  0
LINE
  8
_0-2_
  6
CONTINUOUS
 62
    3
 10
1770.4432585502245
 20
2792.4241936486101
 11
1770.4205686727032
 21
2792.548588053769
  0
LINE
  8
_0-2_
  6
CONTINUOUS
 62
    3
 10
1770.4205686727032
 20
2792.548588053769
 11
1770.3973169909787
 21
2792.6730716030279
  0
LINE
  8
_0-2_
  6
CONTINUOUS
 62
    3
 10
1770.3973169909787
 20
2792.6730716030279
 11
1770.3735035050511
 21
2792.7976442963864
  0
LINE
  8
_0-2_
  6
CONTINUOUS
 62
    3
 10
1770.3735035050511
 20
2792.7976442963864
 11
1770.3491282149203
 21
2792.9223061338453
  0
LINE
  8
_0-2_
  6
CONTINUOUS
 62
    3
 10
1770.3491282149203
 20
2792.9223061338453
 11
1770.3241911205869
 21
2793.0470571154037
  0
LINE
  8
_0-2_
  6
CONTINUOUS
 62
    3
 10
1770.3241911205869
 20
2793.0470571154037
 11
1770.2986922220502
 21
2793.1718972410627
  0
LINE
  8
_0-2_
  6
CONTINUOUS
 62
    3
 10
1770.2986922220502
 20
2793.1718972410627
 11
1770.2726315193108
 21
2793.2968265108207
  0
LINE
  8
_0-2_
  6
CONTINUOUS
 62
    3
 10
1770.2726315193108
 20
2793.2968265108207
 11
1770.2460090123682
 21
2793.4218449246791
  0
LINE
  8
_0-2_
  6
CONTINUOUS
 62
    3
 10
1770.2460090123682
 20
2793.4218449246791
 11
1770.2188247012227
 21
2793.5469524826381
  0
LINE
  8
_0-2_
  6
CONTINUOUS
 62
    3
 10
1770.2188247012227
 20
2793.5469524826381
 11
1770.191078585874
 21
2793.6721491846965
  0
LINE
  8
_0-2_
  6
CONTINUOUS
 62
    3
 10
1770.191078585874
 20
2793.6721491846965
 11
1770.1627706663223
 21
2793.797435030855
  0
LINE
  8
_0-2_
  6
CONTINUOUS
 62
    3
 10
1770.1627706663223
 20
2793.797435030855
 11
1770.1339009425674
 21
2793.9228100211135
  0
LINE
  8
_0-2_
  6
CONTINUOUS
 62
    3
 10
1770.1339009425674
 20
2793.9228100211135
 11
1770.1044694146099
 21
2794.0482741554715
  0
LINE
  8
_0-2_
  6
CONTINUOUS
 62
    3
 10
1770.1044694146099
 20
2794.0482741554715
 11
1770.0744760824491
 21
2794.1738274339305
  0
LINE
  8
_0-2_
  6
CONTINUOUS
 62
    3
 10
1770.0744760824491
 20
2794.1738274339305
 11
1770.0439209460856
 21
2794.2994698564889
  0
LINE
  8
_0-2_
  6
CONTINUOUS
 62
    3
 10
1770.0439209460856
 20
2794.2994698564889
 11
1770.0128040055188
 21
2794.425201423147
  0
LINE
  8
_0-2_
  6
CONTINUOUS
 62
    3
 10
1770.0128040055188
 20
2794.425201423147
 11
1769.9811252607492
 21
2794.5510221339055
  0
LINE
  8
_0-2_
  6
CONTINUOUS
 62
    3
 10
1769.9811252607492
 20
2794.5510221339055
 11
1769.9488847117764
 21
2794.6769319887635
  0
LINE
  8
_0-2_
  6
CONTINUOUS
 62
    3
 10
1769.9488847117764
 20
2794.6769319887635
 11
1769.9160823586008
 21
2794.802930987722
  0
LINE
  8
_0-2_
  6
CONTINUOUS
 62
    3
 10
1769.9160823586008
 20
2794.802930987722
 11
1769.8827182012219
 21
2794.9290191307809
  0
LINE
  8
_0-2_
  6
CONTINUOUS
 62
    3
 10
1769.8827182012219
 20
2794.9290191307809
 11
1769.8487922396403
 21
2795.0551964179385
  0
LINE
  8
_0-2_
  6
CONTINUOUS
 62
    3
 10
1769.8487922396403
 20
2795.0551964179385
 11
1769.8143044738554
 21
2795.1814628491966
  0
LINE
  8
_0-2_
  6
CONTINUOUS
 62
    3
 10
1769.8143044738554
 20
2795.1814628491966
 11
1769.7792549038677
 21
2795.3078184245551
  0
LINE
  8
_0-2_
  6
CONTINUOUS
 62
    3
 10
1769.7792549038677
 20
2795.3078184245551
 11
1769.7439561957531
 21
2795.4340247758705
  0
LINE
  8
_0-2_
  6
CONTINUOUS
 62
    3
 10
1769.7439561957531
 20
2795.4340247758705
 11
1769.7087210155878
 21
2795.5598435350003
  0
LINE
  8
_0-2_
  6
CONTINUOUS
 62
    3
 10
1769.7087210155878
 20
2795.5598435350003
 11
1769.6735493633714
 21
2795.6852747019448
  0
LINE
  8
_0-2_
  6
CONTINUOUS
 62
    3
 10
1769.6735493633714
 20
2795.6852747019448
 11
1769.6384412391046
 21
2795.8103182767027
  0
LINE
  8
_0-2_
  6
CONTINUOUS
 62
    3
 10
1769.6384412391046
 20
2795.8103182767027
 11
1769.6033966427872
 21
2795.9349742592758
  0
LINE
  8
_0-2_
  6
CONTINUOUS
 62
    3
 10
1769.6033966427872
 20
2795.9349742592758
 11
1769.5684155744189
 21
2796.0592426496628
  0
LINE
  8
_0-2_
  6
CONTINUOUS
 62
    3
 10
1769.5684155744189
 20
2796.0592426496628
 11
1769.5334980339996
 21
2796.1831234478641
  0
LINE
  8
_0-2_
  6
CONTINUOUS
 62
    3
 10
1769.5334980339996
 20
2796.1831234478641
 11
1769.4986440215298
 21
2796.3066166538806
  0
LINE
  8
_0-2_
  6
CONTINUOUS
 62
    3
 10
1769.4986440215298
 20
2796.3066166538806
 11
1769.4638535370091
 21
2796.4297222677114
  0
LINE
  8
_0-2_
  6
CONTINUOUS
 62
    3
 10
1769.4638535370091
 20
2796.4297222677114
 11
1769.4291265804382
 21
2796.5524402893557
  0
LINE
  8
_0-2_
  6
CONTINUOUS
 62
    3
 10
1769.4291265804382
 20
2796.5524402893557
 11
1769.3944631518161
 21
2796.6747707188147
  0
LINE
  8
_0-2_
  6
CONTINUOUS
 62
    3
 10
1769.3944631518161
 20
2796.6747707188147
 11
1769.3598632511432
 21
2796.7967135560884
  0
LINE
  8
_0-2_
  6
CONTINUOUS
 62
    3
 10
1769.3598632511432
 20
2796.7967135560884
 11
1769.3253268784197
 21
2796.9182688011761
  0
LINE
  8
_0-2_
  6
CONTINUOUS
 62
    3
 10
1769.3253268784197
 20
2796.9182688011761
 11
1769.2908540336455
 21
2797.0394364540784
  0
LINE
  8
_0-2_
  6
CONTINUOUS
 62
    3
 10
1769.2908540336455
 20
2797.0394364540784
 11
1769.2564447168206
 21
2797.1602165147947
  0
LINE
  8
_0-2_
  6
CONTINUOUS
 62
    3
 10
1769.2564447168206
 20
2797.1602165147947
 11
1769.2220989279449
 21
2797.2806089833261
  0
LINE
  8
_0-2_
  6
CONTINUOUS
 62
    3
 10
1769.2220989279449
 20
2797.2806089833261
 11
1769.1878166670185
 21
2797.4006138596715
  0
LINE
  8
_0-2_
  6
CONTINUOUS
 62
    3
 10
1769.1878166670185
 20
2797.4006138596715
 11
1769.1535979340413
 21
2797.5202311438306
  0
LINE
  8
_0-2_
  6
CONTINUOUS
 62
    3
 10
1769.1535979340413
 20
2797.5202311438306
 11
1769.1194427290134
 21
2797.639460835805
  0
LINE
  8
_0-2_
  6
CONTINUOUS
 62
    3
 10
1769.1194427290134
 20
2797.639460835805
 11
1769.085351051935
 21
2797.7583029355937
  0
LINE
  8
_0-2_
  6
CONTINUOUS
 62
    3
 10
1769.085351051935
 20
2797.7583029355937
 11
1769.0513229028056
 21
2797.8767574431963
  0
LINE
  8
_0-2_
  6
CONTINUOUS
 62
    3
 10
1769.0513229028056
 20
2797.8767574431963
 11
1769.0173582816255
 21
2797.9948243586136
  0
LINE
  8
_0-2_
  6
CONTINUOUS
 62
    3
 10
1769.0173582816255
 20
2797.9948243586136
 11
1768.9834571883948
 21
2798.1125036818453
  0
LINE
  8
_0-2_
  6
CONTINUOUS
 62
    3
 10
1768.9834571883948
 20
2798.1125036818453
 11
1768.9496196231132
 21
2798.2297954128908
  0
LINE
  8
_0-2_
  6
CONTINUOUS
 62
    3
 10
1768.9496196231132
 20
2798.2297954128908
 11
1768.915845585781
 21
2798.346699551752
  0
LINE
  8
_0-2_
  6
CONTINUOUS
 62
    3
 10
1768.915845585781
 20
2798.346699551752
 11
1768.8821350763983
 21
2798.4632160984261
  0
LINE
  8
_0-2_
  6
CONTINUOUS
 62
    3
 10
1768.8821350763983
 20
2798.4632160984261
 11
1768.8484880949641
 21
2798.579345052915
  0
LINE
  8
_0-2_
  6
CONTINUOUS
 62
    3
 10
1768.8484880949641
 20
2798.579345052915
 11
1768.8149046414799
 21
2798.6950864152186
  0
LINE
  8
_0-2_
  6
CONTINUOUS
 62
    3
 10
1768.8149046414799
 20
2798.6950864152186
 11
1768.7813847159446
 21
2798.8104401853366
  0
LINE
  8
_0-2_
  6
CONTINUOUS
 62
    3
 10
1768.7813847159446
 20
2798.8104401853366
 11
1768.7479283183586
 21
2798.9254063632688
  0
LINE
  8
_0-2_
  6
CONTINUOUS
 62
    3
 10
1768.7479283183586
 20
2798.9254063632688
 11
1768.714535448722
 21
2799.0399849490154
  0
LINE
  8
_0-2_
  6
CONTINUOUS
 62
    3
 10
1768.714535448722
 20
2799.0399849490154
 11
1768.6812061070345
 21
2799.1541759425763
  0
LINE
  8
_0-2_
  6
CONTINUOUS
 62
    3
 10
1768.6812061070345
 20
2799.1541759425763
 11
1768.6479402932964
 21
2799.2679793439515
  0
LINE
  8
_0-2_
  6
CONTINUOUS
 62
    3
 10
1768.6479402932964
 20
2799.2679793439515
 11
1768.6147380075072
 21
2799.3813951531411
  0
LINE
  8
_0-2_
  6
CONTINUOUS
 62
    3
 10
1768.6147380075072
 20
2799.3813951531411
 11
1768.5815992496678
 21
2799.4944233701453
  0
LINE
  8
_0-2_
  6
CONTINUOUS
 62
    3
 10
1768.5815992496678
 20
2799.4944233701453
 11
1768.5485240197775
 21
2799.6070639949639
  0
LINE
  8
_0-2_
  6
CONTINUOUS
 62
    3
 10
1768.5485240197775
 20
2799.6070639949639
 11
1768.5155123178365
 21
2799.7193170275968
  0
LINE
  8
_0-2_
  6
CONTINUOUS
 62
    3
 10
1768.5155123178365
 20
2799.7193170275968
 11
1768.4825641438447
 21
2799.8311824680441
  0
LINE
  8
_0-2_
  6
CONTINUOUS
 62
    3
 10
1768.4825641438447
 20
2799.8311824680441
 11
1768.4496794978022
 21
2799.9426603163056
  0
LINE
  8
_0-2_
  6
CONTINUOUS
 62
    3
 10
1768.4496794978022
 20
2799.9426603163056
 11
1768.4168583797089
 21
2800.0537505723814
  0
LINE
  8
_0-2_
  6
CONTINUOUS
 62
    3
 10
1768.4168583797089
 20
2800.0537505723814
 11
1768.3841007895649
 21
2800.1644532362716
  0
LINE
  8
_0-2_
  6
CONTINUOUS
 62
    3
 10
1768.3841007895649
 20
2800.1644532362716
 11
1768.3514067273702
 21
2800.2747683079765
  0
LINE
  8
_0-2_
  6
CONTINUOUS
 62
    3
 10
1768.3514067273702
 20
2800.2747683079765
 11
1768.3187761931249
 21
2800.3846957874953
  0
LINE
  8
_0-2_
  6
CONTINUOUS
 62
    3
 10
1768.3187761931249
 20
2800.3846957874953
 11
1768.2862091868285
 21
2800.4942356748288
  0
LINE
  8
_0-2_
  6
CONTINUOUS
 62
    3
 10
1768.2862091868285
 20
2800.4942356748288
 11
1768.2537057084814
 21
2800.6033879699767
  0
LINE
  8
_0-2_
  6
CONTINUOUS
 62
    3
 10
1768.2537057084814
 20
2800.6033879699767
 11
1768.2212657580837
 21
2800.7121526729388
  0
LINE
  8
_0-2_
  6
CONTINUOUS
 62
    3
 10
1768.2212657580837
 20
2800.7121526729388
 11
1768.1888893356354
 21
2800.8205297837148
  0
LINE
  8
_0-2_
  6
CONTINUOUS
 62
    3
 10
1768.1888893356354
 20
2800.8205297837148
 11
1768.1565764411362
 21
2800.9285193023061
  0
LINE
  8
_0-2_
  6
CONTINUOUS
 62
    3
 10
1768.1565764411362
 20
2800.9285193023061
 11
1768.1243270745863
 21
2801.0361212287116
  0
LINE
  8
_0-2_
  6
CONTINUOUS
 62
    3
 10
1768.1243270745863
 20
2801.0361212287116
 11
1768.0921412359858
 21
2801.143335562931
  0
LINE
  8
_0-2_
  6
CONTINUOUS
 62
    3
 10
1768.0921412359858
 20
2801.143335562931
 11
1768.0600189253344
 21
2801.2501623049648
  0
LINE
  8
_0-2_
  6
CONTINUOUS
 62
    3
 10
1768.0600189253344
 20
2801.2501623049648
 11
1768.0279601426323
 21
2801.3566014548137
  0
LINE
  8
_0-2_
  6
CONTINUOUS
 62
    3
 10
1768.0279601426323
 20
2801.3566014548137
 11
1767.9959648878794
 21
2801.4626530124765
  0
LINE
  8
_0-2_
  6
CONTINUOUS
 62
    3
 10
1767.9959648878794
 20
2801.4626530124765
 11
1767.9640331610763
 21
2801.5683169779541
  0
LINE
  8
_0-2_
  6
CONTINUOUS
 62
    3
 10
1767.9640331610763
 20
2801.5683169779541
 11
1767.9321649622216
 21
2801.673593351245
  0
LINE
  8
_0-2_
  6
CONTINUOUS
 62
    3
 10
1767.9321649622216
 20
2801.673593351245
 11
1767.9003602913167
 21
2801.7784821323512
  0
LINE
  8
_0-2_
  6
CONTINUOUS
 62
    3
 10
1767.9003602913167
 20
2801.7784821323512
 11
1767.8686191483609
 21
2801.8829833212712
  0
LINE
  8
_0-2_
  6
CONTINUOUS
 62
    3
 10
1767.8686191483609
 20
2801.8829833212712
 11
1767.8369415333545
 21
2801.987096918006
  0
LINE
  8
_0-2_
  6
CONTINUOUS
 62
    3
 10
1767.8369415333545
 20
2801.987096918006
 11
1767.8053274462973
 21
2802.0908229225552
  0
LINE
  8
_0-2_
  6
CONTINUOUS
 62
    3
 10
1767.8053274462973
 20
2802.0908229225552
 11
1767.7737768871893
 21
2802.1941613349186
  0
LINE
  8
_0-2_
  6
CONTINUOUS
 62
    3
 10
1767.7737768871893
 20
2802.1941613349186
 11
1767.7422898560308
 21
2802.2971121550963
  0
LINE
  8
_0-2_
  6
CONTINUOUS
 62
    3
 10
1767.7422898560308
 20
2802.2971121550963
 11
1767.7108663528213
 21
2802.3996753830888
  0
LINE
  8
_0-2_
  6
CONTINUOUS
 62
    3
 10
1767.7108663528213
 20
2802.3996753830888
 11
1767.6795063775612
 21
2802.5018510188947
  0
LINE
  8
_0-2_
  6
CONTINUOUS
 62
    3
 10
1767.6795063775612
 20
2802.5018510188947
 11
1767.6482099302502
 21
2802.6036390625159
  0
LINE
  8
_0-2_
  6
CONTINUOUS
 62
    3
 10
1757.6482099302484
 20
2832.603639062515
 11
1777.6482099302502
 21
2832.603639062515
  0
LINE
  8
_0-2_
  6
CONTINUOUS
 62
    3
 10
1774.6482099302484
 20
2832.603639062515
 11
1774.6482099302484
 21
2847.6036390625168
  0
LINE
  8
_0-2_
  6
CONTINUOUS
 62
    3
 10
1760.6482099302502
 20
2832.603639062515
 11
1760.6482099302502
 21
2847.6036390625168
  0
ARC
  8
_0-2_
  6
CONTINUOUS
 62
    3
 10
1767.6482099302502
 20
2812.603639062515
 40
10
 50
180
 51
0
  0
LINE
  8
_0-2_
  6
CONTINUOUS
 62
    3
 10
1777.6482099302502
 20
2812.6036390625168
 11
1777.6482099302502
 21
2832.603639062515
  0
LINE
  8
_0-2_
  6
CONTINUOUS
 62
    3
 10
1757.6482099302484
 20
2812.6036390625168
 11
1757.6482099302484
 21
2832.603639062515
  0
LINE
  8
_0-3_
  6
CONTINUOUS
 62
    7
 10
988.44957827701455
 20
1576.3338905451428
 11
1667.5570744583647
 21
1576.3338905451428
  0
LINE
  8
_0-3_
  6
CONTINUOUS
 62
    7
 10
1933.4496091441906
 20
2757.5608755650296
 11
1933.4496091441908
 21
1691.7537993641572
  0
LINE
  8
_0-3_
  6
CONTINUOUS
 62
    7
 10
988.44957827701455
 20
1576.3338905451428
 11
888.44957817643171
 21
1576.3338905451428
  0
LINE
  8
_0-3_
  6
CONTINUOUS
 62
    7
 10
988.44957827701455
 20
2715.3338905451428
 11
888.44957817643171
 21
2715.3338905451428
  0
LINE
  8
_0-3_
  6
CONTINUOUS
 62
    7
 10
888.44957817643171
 20
1576.3338905451428
 11
888.44957817643171
 21
2715.3338905451428
  0
CIRCLE
  8
_0-3_
  6
CONTINUOUS
 62
    7
 10
888.44957817643171
 20
1576.3338905451428
 40
5.9996337890625
  0
CIRCLE
  8
_0-3_
  6
CONTINUOUS
 62
    7
 10
888.44957817643171
 20
2715.3338905451428
 40
5.9996337890625
  0
TEXT
  8
_0-3_
 62
    7
 10
880.44957820623404
 20
2066.9549842951428
 40
95.25
 41
0.828125
 50
90
  1
1139
  0
LINE
  8
_0-3_
  6
CONTINUOUS
 62
    7
 10
1803.4496091441906
 20
2757.5608755650296
 11
1803.4496091441906
 21
2857.5608756656125
  0
LINE
  8
_0-3_
  6
CONTINUOUS
 62
    7
 10
1933.4496091441906
 20
2757.5608755650296
 11
1933.4496091441906
 21
2857.5608756656125
  0
LINE
  8
_0-3_
  6
CONTINUOUS
 62
    7
 10
1803.4496091441906
 20
2857.5608756656125
 11
1933.4496091441906
 21
2857.5608756656125
  0
CIRCLE
  8
_0-3_
  6
CONTINUOUS
 62
    7
 10
1803.4496091441906
 20
2857.5608756656125
 40
5.9996337890625
  0
CIRCLE
  8
_0-3_
  6
CONTINUOUS
 62
    7
 10
1933.4496091441906
 20
2857.5608756656125
 40
5.9996337890625
  0
TEXT
  8
_0-3_
 62
    7
 10
1809.2904294566906
 20
2865.5608756358101
 40
95.25
 41
0.828125
 50
0
  1
130
  0
TEXT
  8
_0-0_
 62
    7
 10
1442.5125836665095
 20
2020.4459488384277
 40
74.083333333333343
 41
0.6666667272174169
 50
-40.000000000000121
  1
最大開閉角度
  0
LINE
  8
_0-0_
  6
CONTINUOUS
 62
    4
 10
1470.9643462549507
 20
2165.3338905451428
 11
1616.0986514952633
 21
2165.3338905451428
  0
LINE
  8
_0-0_
  6
CONTINUOUS
 62
    4
 10
1822.557271679384
 20
1870.31239649696
 11
1797.3549640574474
 21
2013.2417855256604
  0
ARC
  8
_0-0_
  6
CONTINUOUS
 62
    4
 10
1770.5370223897673
 20
2165.3338905451428
 40
154.43837089450403
 50
180
 51
280
  0
CIRCLE
  8
_0-0_
  6
CONTINUOUS
 62
    4
 10
1797.3549640574474
 20
2013.2417855256604
 40
5.9996337890625
  0
CIRCLE
  8
_0-0_
  6
CONTINUOUS
 62
    4
 10
1616.0986514952633
 20
2165.3338905451428
 40
5.9996337890625
  0
TEXT
  8
_0-0_
 62
    7
 10
1546.7535617882334
 20
2016.7222320965243
 40
95.25
 41
0.6374999999999999
 50
-39.999999999999964
  1
100°
  0
TEXT
  8
_0-1_
 62
    7
 10
870.43068931734581
 20
1634.3182520877385
 40
74.083333333333343
 41
0.6406250403671667
 50
90
  1
最大奥行寸法(90°)
  0
LINE
  8
_0-3_
  6
CONTINUOUS
 62
    7
 10
1188.4495783775974
 20
2097.3338905451428
 11
988.44957817643171
 21
2097.3338905451428
  0
LINE
  8
_0-3_
  6
CONTINUOUS
 62
    7
 10
1188.4495783775974
 20
2145.3338905451428
 11
988.44957817643171
 21
2145.3338905451428
  0
LINE
  8
_0-3_
  6
CONTINUOUS
 62
    7
 10
988.44957817643171
 20
2097.3338905451428
 11
988.44957817643171
 21
2145.3338905451428
  0
CIRCLE
  8
_0-3_
  6
CONTINUOUS
 62
    7
 10
988.44957817643171
 20
2097.3338905451428
 40
5.9996337890625
  0
CIRCLE
  8
_0-3_
  6
CONTINUOUS
 62
    7
 10
988.44957817643171
 20
2145.3338905451428
 40
5.9996337890625
  0
TEXT
  8
_0-3_
 62
    7
 10
980.44957820623404
 20
2081.8944374201428
 40
95.25
 41
0.828125
 50
90
  1
48
  0
LINE
  8
_0-2_
  6
CONTINUOUS
 62
    3
 10
1215.4496091441924
 20
2165.3338905451428
 11
1803.4496091441906
 21
2165.3338905451428
  0
LINE
  8
_0-2_
  6
CONTINUOUS
 62
    3
 10
1215.4496091441924
 20
2165.3338905451428
 11
1215.4496091441924
 21
2183.3338905451428
  0
LINE
  8
_0-2_
  6
CONTINUOUS
 62
    3
 10
1803.4496091441906
 20
2165.3338905451428
 11
1803.4496091441906
 21
2183.3338905451428
  0
LINE
  8
_0-2_
  6
CONTINUOUS
 62
    3
 10
1215.4496091441924
 20
2183.3338905451428
 11
1803.4496091441906
 21
2183.3338905451428
  0
LINE
  8
_0-2_
  6
CONTINUOUS
 62
    3
 10
1215.4496091441924
 20
2165.3338905451428
 11
1803.4496091441906
 21
2165.3338905451428
  0
LINE
  8
_0-2_
  6
CONTINUOUS
 62
    3
 10
1803.4496091441906
 20
2165.3338905451428
 11
1803.4496091441906
 21
2145.3338905451428
  0
LINE
  8
_0-2_
  6
CONTINUOUS
 62
    3
 10
1803.4496091441906
 20
2145.3338905451428
 11
1225.4496091441924
 21
2145.3338905451428
  0
LINE
  8
_0-2_
  6
CONTINUOUS
 62
    3
 10
1225.4496091441924
 20
2145.3338905451428
 11
1215.4496091441924
 21
2155.3338905451428
  0
LINE
  8
_0-2_
  6
CONTINUOUS
 62
    3
 10
1215.4496091441924
 20
2155.3338905451428
 11
1215.4496091441924
 21
2165.3338905451428
  0
CIRCLE
  8
_0-2_
  6
CONTINUOUS
 62
    3
 10
1790.4496091441906
 20
2155.3338905451428
 40
2.5
  0
LINE
  8
_0-0_
  6
DASHED1
 62
    4
 10
1892.8315366997767
 20
1586.9426445626825
 11
1789.163574632619
 21
2174.8728731109709
  0
LINE
  8
_0-0_
  6
DASHED1
 62
    4
 10
1892.8315366997767
 20
1586.9426445626825
 11
1873.1353816395326
 21
1583.4696810093442
  0
LINE
  8
_0-0_
  6
DASHED1
 62
    4
 10
1789.163574632619
 20
2174.8728731109709
 11
1769.4674195723749
 21
2171.3999095576319
  0
LINE
  8
_0-0_
  6
DASHED1
 62
    4
 10
1873.1353816395326
 20
1583.4696810093442
 11
1769.4674195723749
 21
2171.3999095576319
  0
ARC
  8
_0-0_
  6
DASHED1
 62
    4
 10
1885.7496977366095
 20
1625.5940641576831
 40
39.294842916202199
 50
280.38275584343313
 51
340.38275584343313
  0
ARC
  8
_0-0_
  6
DASHED1
 62
    4
 10
1885.7496977366095
 20
1625.5940641576831
 40
36.294842916202171
 50
280.38275584343296
 51
340.38275584343296
  0
CIRCLE
  8
_0-0_
  6
DASHED1
 62
    4
 10
1925.4496091441908
 20
1619.9370584091257
 40
7.9999999999999911
  0
LINE
  8
_0-0_
  6
DASHED1
 62
    4
 10
1800.4496091441906
 20
1576.3338905451428
 11
1800.4496091441906
 21
2173.3338905451428
  0
LINE
  8
_0-0_
  6
DASHED1
 62
    4
 10
1800.4496091441906
 20
1576.3338905451428
 11
1780.4496091441906
 21
1576.3338905451428
  0
LINE
  8
_0-0_
  6
DASHED1
 62
    4
 10
1800.4496091441906
 20
2173.3338905451428
 11
1780.4496091441906
 21
2173.3338905451428
  0
LINE
  8
_0-0_
  6
DASHED1
 62
    4
 10
1780.4496091441906
 20
1576.3338905451428
 11
1780.4496091441906
 21
2173.3338905451428
  0
ARC
  8
_0-0_
  6
DASHED1
 62
    4
 10
1800.1871078045915
 20
1615.6278566577116
 40
39.294842916202185
 50
270.38275584343313
 51
330.3827558434333
  0
ARC
  8
_0-0_
  6
DASHED1
 62
    4
 10
1800.1871078045915
 20
1615.6278566577116
 40
36.294842916202242
 50
270.38275584343342
 51
330.38275584343313
  0
CIRCLE
  8
_0-0_
  6
DASHED1
 62
    4
 10
1838.3015596133873
 20
1603.1629762682328
 40
8.0000000000000124
  0
ARC
  8
_0-2_
  6
CENTER1
 62
    3
 10
1781.9655730554373
 20
2151.7981788424968
 40
575.5268247214334
 50
179.6480048822161
 51
280.109063683079
  0
LINE
  8
_0-2_
  6
CONTINUOUS
 62
    3
 10
1235.5570744583647
 20
2196.0550111336893
 11
1310.5570744583647
 21
2196.0550111336893
  0
LINE
  8
_0-2_
  6
CONTINUOUS
 62
    3
 10
1235.5570744583647
 20
2196.0550111336893
 11
1235.5570744583647
 21
2225.0550111336893
  0
LINE
  8
_0-2_
  6
CONTINUOUS
 62
    3
 10
1310.5570744583647
 20
2196.0550111336893
 11
1310.5570744583647
 21
2225.0550111336893
  0
LINE
  8
_0-2_
  6
CONTINUOUS
 62
    3
 10
1235.5570744583647
 20
2225.0550111336893
 11
1310.5570744583647
 21
2225.0550111336893
  0
LINE
  8
_0-2_
  6
CONTINUOUS
 62
    3
 10
1704.4496091441906
 20
2196.0550111336893
 11
1777.4496091441906
 21
2196.0550111336893
  0
LINE
  8
_0-2_
  6
CONTINUOUS
 62
    3
 10
1704.4496091441906
 20
2196.0550111336893
 11
1704.4496091441906
 21
2224.0550111336893
  0
LINE
  8
_0-2_
  6
CONTINUOUS
 62
    3
 10
1777.4496091441906
 20
2196.0550111336893
 11
1777.4496091441906
 21
2224.0550111336893
  0
LINE
  8
_0-2_
  6
CONTINUOUS
 62
    3
 10
1704.4496091441906
 20
2224.0550111336893
 11
1777.4496091441906
 21
2224.0550111336893
  0
LINE
  8
_0-2_
  6
CONTINUOUS
 62
    3
 10
1668.4496091441906
 20
2675.0550111336897
 11
1668.4496091441906
 21
2214.4900510947064
  0
LINE
  8
_0-2_
  6
CONTINUOUS
 62
    3
 10
1777.4496091441906
 20
2240.0550111336893
 11
1686.4496091441906
 21
2240.0550111336893
  0
LINE
  8
_0-2_
  6
CONTINUOUS
 62
    3
 10
1505.4496091441906
 20
2214.0550111336893
 11
1666.4496091441906
 21
2214.0550111336893
  0
LINE
  8
_0-2_
  6
CONTINUOUS
 62
    3
 10
1666.4496091441906
 20
2214.0550111336893
 11
1666.9404337146489
 21
2214.0610347597653
  0
LINE
  8
_0-2_
  6
CONTINUOUS
 62
    3
 10
1666.9404337146489
 20
2214.0610347597653
 11
1667.430962630739
 21
2214.0791020095858
  0
LINE
  8
_0-2_
  6
CONTINUOUS
 62
    3
 10
1667.430962630739
 20
2214.0791020095858
 11
1667.9209004161839
 21
2214.1092020001156
  0
LINE
  8
_0-2_
  6
CONTINUOUS
 62
    3
 10
1667.9209004161839
 20
2214.1092020001156
 11
1668.4099519507818
 21
2214.1513166002455
  0
LINE
  8
_0-2_
  6
CONTINUOUS
 62
    3
 10
1668.4099519507818
 20
2214.1513166002455
 11
1668.897822648175
 21
2214.205420441715
  0
LINE
  8
_0-2_
  6
CONTINUOUS
 62
    3
 10
1668.897822648175
 20
2214.205420441715
 11
1669.3842186332977
 21
2214.2714809343938
  0
LINE
  8
_0-2_
  6
CONTINUOUS
 62
    3
 10
1669.3842186332977
 20
2214.2714809343938
 11
1669.8688469193967
 21
2214.3494582859107
  0
LINE
  8
_0-2_
  6
CONTINUOUS
 62
    3
 10
1669.8688469193967
 20
2214.3494582859107
 11
1670.3514155845132
 21
2214.4393055256246
  0
LINE
  8
_0-2_
  6
CONTINUOUS
 62
    3
 10
1670.3514155845132
 20
2214.4393055256246
 11
1670.8316339473281
 21
2214.5409685329187
  0
LINE
  8
_0-2_
  6
CONTINUOUS
 62
    3
 10
1670.8316339473281
 20
2214.5409685329187
 11
1671.3092127422558
 21
2214.6543860697984
  0
LINE
  8
_0-2_
  6
CONTINUOUS
 62
    3
 10
1671.3092127422558
 20
2214.6543860697984
 11
1671.7838642936886
 21
2214.7794898177804
  0
LINE
  8
_0-2_
  6
CONTINUOUS
 62
    3
 10
1671.7838642936886
 20
2214.7794898177804
 11
1672.2553026892799
 21
2214.9162044190452
  0
LINE
  8
_0-2_
  6
CONTINUOUS
 62
    3
 10
1672.2553026892799
 20
2214.9162044190452
 11
1672.7232439521683
 21
2215.0644475218287
  0
LINE
  8
_0-2_
  6
CONTINUOUS
 62
    3
 10
1672.7232439521683
 20
2215.0644475218287
 11
1673.1874062120351
 21
2215.2241298300287
  0
LINE
  8
_0-2_
  6
CONTINUOUS
 62
    3
 10
1673.1874062120351
 20
2215.2241298300287
 11
1673.6475098748904
 21
2215.3951551569944
  0
LINE
  8
_0-2_
  6
CONTINUOUS
 62
    3
 10
1673.6475098748904
 20
2215.3951551569944
 11
1674.1032777914925
 21
2215.5774204834634
  0
LINE
  8
_0-2_
  6
CONTINUOUS
 62
    3
 10
1674.1032777914925
 20
2215.5774204834634
 11
1674.5544354242904
 21
2215.7708160196189
  0
LINE
  8
_0-2_
  6
CONTINUOUS
 62
    3
 10
1674.5544354242904
 20
2215.7708160196189
 11
1675.0007110127963
 21
2215.9752252712206
  0
LINE
  8
_0-2_
  6
CONTINUOUS
 62
    3
 10
1675.0007110127963
 20
2215.9752252712206
 11
1675.4418357372829
 21
2216.1905251097787
  0
LINE
  8
_0-2_
  6
CONTINUOUS
 62
    3
 10
1675.4418357372829
 20
2216.1905251097787
 11
1675.8775438807106
 21
2216.4165858467222
  0
LINE
  8
_0-2_
  6
CONTINUOUS
 62
    3
 10
1675.8775438807106
 20
2216.4165858467222
 11
1676.3075729887862
 21
2216.6532713115153
  0
LINE
  8
_0-2_
  6
CONTINUOUS
 62
    3
 10
1676.3075729887862
 20
2216.6532713115153
 11
1676.7316640280551
 21
2216.9004389336842
  0
LINE
  8
_0-2_
  6
CONTINUOUS
 62
    3
 10
1676.7316640280551
 20
2216.9004389336842
 11
1677.1495615419326
 21
2217.1579398286949
  0
LINE
  8
_0-2_
  6
CONTINUOUS
 62
    3
 10
1677.1495615419326
 20
2217.1579398286949
 11
1677.5610138045827
 21
2217.4256188876384
  0
LINE
  8
_0-2_
  6
CONTINUOUS
 62
    3
 10
1677.5610138045827
 20
2217.4256188876384
 11
1677.9657729725475
 21
2217.7033148706578
  0
LINE
  8
_0-2_
  6
CONTINUOUS
 62
    3
 10
1677.9657729725475
 20
2217.7033148706578
 11
1678.3635952340392
 21
2217.9908605040764
  0
LINE
  8
_0-2_
  6
CONTINUOUS
 62
    3
 10
1678.3635952340392
 20
2217.9908605040764
 11
1678.7542409558032
 21
2218.2880825811571
  0
LINE
  8
_0-2_
  6
CONTINUOUS
 62
    3
 10
1678.7542409558032
 20
2218.2880825811571
 11
1679.1374748274634
 21
2218.5948020664346
  0
LINE
  8
_0-2_
  6
CONTINUOUS
 62
    3
 10
1679.1374748274634
 20
2218.5948020664346
 11
1679.5130660032664
 21
2218.9108342035597
  0
LINE
  8
_0-2_
  6
CONTINUOUS
 62
    3
 10
1679.5130660032664
 20
2218.9108342035597
 11
1679.8807882411306
 21
2219.2359886265904
  0
LINE
  8
_0-2_
  6
CONTINUOUS
 62
    3
 10
1679.8807882411306
 20
2219.2359886265904
 11
1680.2404200389319
 21
2219.5700694746602
  0
LINE
  8
_0-2_
  6
CONTINUOUS
 62
    3
 10
1680.2404200389319
 20
2219.5700694746602
 11
1680.5917447679215
 21
2219.9128755099582
  0
LINE
  8
_0-2_
  6
CONTINUOUS
 62
    3
 10
1680.5917447679215
 20
2219.9128755099582
 11
1680.93455080322
 21
2220.264200238948
  0
LINE
  8
_0-2_
  6
CONTINUOUS
 62
    3
 10
1680.93455080322
 20
2220.264200238948
 11
1681.2686316512898
 21
2220.6238320367488
  0
LINE
  8
_0-2_
  6
CONTINUOUS
 62
    3
 10
1681.2686316512898
 20
2220.6238320367488
 11
1681.5937860743202
 21
2220.9915542746139
  0
LINE
  8
_0-2_
  6
CONTINUOUS
 62
    3
 10
1681.5937860743202
 20
2220.9915542746139
 11
1681.9098182114453
 21
2221.3671454504165
  0
LINE
  8
_0-2_
  6
CONTINUOUS
 62
    3
 10
1681.9098182114453
 20
2221.3671454504165
 11
1682.2165376967228
 21
2221.7503793220767
  0
LINE
  8
_0-2_
  6
CONTINUOUS
 62
    3
 10
1682.2165376967228
 20
2221.7503793220767
 11
1682.5137597738035
 21
2222.1410250438407
  0
LINE
  8
_0-2_
  6
CONTINUOUS
 62
    3
 10
1682.5137597738035
 20
2222.1410250438407
 11
1682.8013054072223
 21
2222.5388473053322
  0
LINE
  8
_0-2_
  6
CONTINUOUS
 62
    3
 10
1682.8013054072223
 20
2222.5388473053322
 11
1683.0790013902415
 21
2222.9436064732972
  0
LINE
  8
_0-2_
  6
CONTINUOUS
 62
    3
 10
1683.0790013902415
 20
2222.9436064732972
 11
1683.346680449185
 21
2223.3550587359473
  0
LINE
  8
_0-2_
  6
CONTINUOUS
 62
    3
 10
1683.346680449185
 20
2223.3550587359473
 11
1683.6041813441961
 21
2223.7729562498248
  0
LINE
  8
_0-2_
  6
CONTINUOUS
 62
    3
 10
1683.6041813441961
 20
2223.7729562498248
 11
1683.8513489663649
 21
2224.1970472890935
  0
LINE
  8
_0-2_
  6
CONTINUOUS
 62
    3
 10
1683.8513489663649
 20
2224.1970472890935
 11
1684.0880344311577
 21
2224.6270763971693
  0
LINE
  8
_0-2_
  6
CONTINUOUS
 62
    3
 10
1684.0880344311577
 20
2224.6270763971693
 11
1684.3140951681012
 21
2225.062784540597
  0
LINE
  8
_0-2_
  6
CONTINUOUS
 62
    3
 10
1684.3140951681012
 20
2225.062784540597
 11
1684.5293950066593
 21
2225.5039092650836
  0
LINE
  8
_0-2_
  6
CONTINUOUS
 62
    3
 10
1684.5293950066593
 20
2225.5039092650836
 11
1684.7338042582612
 21
2225.9501848535892
  0
LINE
  8
_0-2_
  6
CONTINUOUS
 62
    3
 10
1684.7338042582612
 20
2225.9501848535892
 11
1684.9271997944163
 21
2226.4013424863874
  0
LINE
  8
_0-2_
  6
CONTINUOUS
 62
    3
 10
1684.9271997944163
 20
2226.4013424863874
 11
1685.1094651208855
 21
2226.8571104029893
  0
LINE
  8
_0-2_
  6
CONTINUOUS
 62
    3
 10
1685.1094651208855
 20
2226.8571104029893
 11
1685.280490447851
 21
2227.3172140658448
  0
LINE
  8
_0-2_
  6
CONTINUOUS
 62
    3
 10
1685.280490447851
 20
2227.3172140658448
 11
1685.4401727560512
 21
2227.7813763257113
  0
LINE
  8
_0-2_
  6
CONTINUOUS
 62
    3
 10
1685.4401727560512
 20
2227.7813763257113
 11
1685.5884158588347
 21
2228.2493175886002
  0
LINE
  8
_0-2_
  6
CONTINUOUS
 62
    3
 10
1685.5884158588347
 20
2228.2493175886002
 11
1685.7251304600993
 21
2228.7207559841913
  0
LINE
  8
_0-2_
  6
CONTINUOUS
 62
    3
 10
1685.7251304600993
 20
2228.7207559841913
 11
1685.8502342080815
 21
2229.1954075356239
  0
LINE
  8
_0-2_
  6
CONTINUOUS
 62
    3
 10
1685.8502342080815
 20
2229.1954075356239
 11
1685.9636517449612
 21
2229.6729863305518
  0
LINE
  8
_0-2_
  6
CONTINUOUS
 62
    3
 10
1685.9636517449612
 20
2229.6729863305518
 11
1686.0653147522548
 21
2230.1532046933667
  0
LINE
  8
_0-2_
  6
CONTINUOUS
 62
    3
 10
1686.0653147522548
 20
2230.1532046933667
 11
1686.1551619919694
 21
2230.6357733584832
  0
LINE
  8
_0-2_
  6
CONTINUOUS
 62
    3
 10
1686.1551619919694
 20
2230.6357733584832
 11
1686.2331393434861
 21
2231.1204016445818
  0
LINE
  8
_0-2_
  6
CONTINUOUS
 62
    3
 10
1686.2331393434861
 20
2231.1204016445818
 11
1686.2991998361647
 21
2231.6067976297049
  0
LINE
  8
_0-2_
  6
CONTINUOUS
 62
    3
 10
1686.2991998361647
 20
2231.6067976297049
 11
1686.3533036776346
 21
2232.0946683270981
  0
LINE
  8
_0-2_
  6
CONTINUOUS
 62
    3
 10
1686.3533036776346
 20
2232.0946683270981
 11
1686.3954182777643
 21
2232.583719861696
  0
LINE
  8
_0-2_
  6
CONTINUOUS
 62
    3
 10
1686.3954182777643
 20
2232.583719861696
 11
1686.4255182682939
 21
2233.0736576471409
  0
LINE
  8
_0-2_
  6
CONTINUOUS
 62
    3
 10
1686.4255182682939
 20
2233.0736576471409
 11
1686.4435855181146
 21
2233.564186563231
  0
LINE
  8
_0-2_
  6
CONTINUOUS
 62
    3
 10
1686.4435855181146
 20
2233.564186563231
 11
1686.4496091441906
 21
2234.0550111336893
  0
LINE
  8
_0-2_
  6
CONTINUOUS
 62
    3
 10
1686.4496091441906
 20
2234.0550111336893
 11
1686.4496091441906
 21
2675.0550111336897
  0
LINE
  8
_0-2_
  6
CONTINUOUS
 62
    3
 10
1686.4496091441906
 20
2675.0550111336897
 11
1681.4496091441906
 21
2675.0550111336897
  0
LINE
  8
_0-2_
  6
CONTINUOUS
 62
    3
 10
1681.4496091441906
 20
2675.0550111336897
 11
1681.4496091441906
 21
2234.0550111336893
  0
LINE
  8
_0-2_
  6
CONTINUOUS
 62
    3
 10
1681.4496091441906
 20
2234.0550111336893
 11
1681.4450914246336
 21
2233.6868927058454
  0
LINE
  8
_0-2_
  6
CONTINUOUS
 62
    3
 10
1681.4450914246336
 20
2233.6868927058454
 11
1681.4315409872684
 21
2233.3189960187783
  0
LINE
  8
_0-2_
  6
CONTINUOUS
 62
    3
 10
1681.4315409872684
 20
2233.3189960187783
 11
1681.4089659943711
 21
2232.9515426796943
  0
LINE
  8
_0-2_
  6
CONTINUOUS
 62
    3
 10
1681.4089659943711
 20
2232.9515426796943
 11
1681.3773800442737
 21
2232.5847540287459
  0
LINE
  8
_0-2_
  6
CONTINUOUS
 62
    3
 10
1681.3773800442737
 20
2232.5847540287459
 11
1681.3368021631713
 21
2232.2188510057008
  0
LINE
  8
_0-2_
  6
CONTINUOUS
 62
    3
 10
1681.3368021631713
 20
2232.2188510057008
 11
1681.2872567936624
 21
2231.8540540168588
  0
LINE
  8
_0-2_
  6
CONTINUOUS
 62
    3
 10
1681.2872567936624
 20
2231.8540540168588
 11
1681.2287737800248
 21
2231.4905828022847
  0
LINE
  8
_0-2_
  6
CONTINUOUS
 62
    3
 10
1681.2287737800248
 20
2231.4905828022847
 11
1681.1613883502391
 21
2231.1286563034473
  0
LINE
  8
_0-2_
  6
CONTINUOUS
 62
    3
 10
1681.1613883502391
 20
2231.1286563034473
 11
1681.0851410947685
 21
2230.7684925313361
  0
LINE
  8
_0-2_
  6
CONTINUOUS
 62
    3
 10
1681.0851410947685
 20
2230.7684925313361
 11
1681.0000779421089
 21
2230.41030843514
  0
LINE
  8
_0-2_
  6
CONTINUOUS
 62
    3
 10
1681.0000779421089
 20
2230.41030843514
 11
1680.9062501311223
 21
2230.0543197715656
  0
LINE
  8
_0-2_
  6
CONTINUOUS
 62
    3
 10
1680.9062501311223
 20
2230.0543197715656
 11
1680.8037141801738
 21
2229.7007409748726
  0
LINE
  8
_0-2_
  6
CONTINUOUS
 62
    3
 10
1680.8037141801738
 20
2229.7007409748726
 11
1680.6925318530862
 21
2229.3497850277063
  0
LINE
  8
_0-2_
  6
CONTINUOUS
 62
    3
 10
1680.6925318530862
 20
2229.3497850277063
 11
1680.5727701219359
 21
2229.0016633328059
  0
LINE
  8
_0-2_
  6
CONTINUOUS
 62
    3
 10
1680.5727701219359
 20
2229.0016633328059
 11
1680.4445011267117
 21
2228.6565855856643
  0
LINE
  8
_0-2_
  6
CONTINUOUS
 62
    3
 10
1680.4445011267117
 20
2228.6565855856643
 11
1680.3078021318602
 21
2228.3147596482131
  0
LINE
  8
_0-2_
  6
CONTINUOUS
 62
    3
 10
1680.3078021318602
 20
2228.3147596482131
 11
1680.1627554797435
 21
2227.9763914236146
  0
LINE
  8
_0-2_
  6
CONTINUOUS
 62
    3
 10
1680.1627554797435
 20
2227.9763914236146
 11
1680.0094485410423
 21
2227.6416847322348
  0
LINE
  8
_0-2_
  6
CONTINUOUS
 62
    3
 10
1680.0094485410423
 20
2227.6416847322348
 11
1679.8479736621234
 21
2227.3108411888702
  0
LINE
  8
_0-2_
  6
CONTINUOUS
 62
    3
 10
1679.8479736621234
 20
2227.3108411888702
 11
1679.678428109416
 21
2226.984060081299
  0
LINE
  8
_0-2_
  6
CONTINUOUS
 62
    3
 10
1679.678428109416
 20
2226.984060081299
 11
1679.5009140108214
 21
2226.6615382502423
  0
LINE
  8
_0-2_
  6
CONTINUOUS
 62
    3
 10
1679.5009140108214
 20
2226.6615382502423
 11
1679.3155382941948
 21
2226.3434699707909
  0
LINE
  8
_0-2_
  6
CONTINUOUS
 62
    3
 10
1679.3155382941948
 20
2226.3434699707909
 11
1679.1224126229363
 21
2226.0300468353826
  0
LINE
  8
_0-2_
  6
CONTINUOUS
 62
    3
 10
1679.1224126229363
 20
2226.0300468353826
 11
1678.9216533287288
 21
2225.7214576383953
  0
LINE
  8
_0-2_
  6
CONTINUOUS
 62
    3
 10
1678.9216533287288
 20
2225.7214576383953
 11
1678.7133813414644
 21
2225.4178882624219
  0
LINE
  8
_0-2_
  6
CONTINUOUS
 62
    3
 10
1678.7133813414644
 20
2225.4178882624219
 11
1678.4977221164004
 21
2225.1195215663029
  0
LINE
  8
_0-2_
  6
CONTINUOUS
 62
    3
 10
1678.4977221164004
 20
2225.1195215663029
 11
1678.2748055585896
 21
2224.8265372749797
  0
LINE
  8
_0-2_
  6
CONTINUOUS
 62
    3
 10
1678.2748055585896
 20
2224.8265372749797
 11
1678.0447659446318
 21
2224.5391118712346
  0
LINE
  8
_0-2_
  6
CONTINUOUS
 62
    3
 10
1678.0447659446318
 20
2224.5391118712346
 11
1677.8077418417879
 21
2224.2574184893824
  0
LINE
  8
_0-2_
  6
CONTINUOUS
 62
    3
 10
1677.8077418417879
 20
2224.2574184893824
 11
1677.5638760245149
 21
2223.9816268109839
  0
LINE
  8
_0-2_
  6
CONTINUOUS
 62
    3
 10
1677.5638760245149
 20
2223.9816268109839
 11
1677.3133153884626
 21
2223.7119029626333
  0
LINE
  8
_0-2_
  6
CONTINUOUS
 62
    3
 10
1677.3133153884626
 20
2223.7119029626333
 11
1677.0562108619888
 21
2223.4484094158911
  0
LINE
  8
_0-2_
  6
CONTINUOUS
 62
    3
 10
1677.0562108619888
 20
2223.4484094158911
 11
1676.7927173152466
 21
2223.1913048894176
  0
LINE
  8
_0-2_
  6
CONTINUOUS
 62
    3
 10
1676.7927173152466
 20
2223.1913048894176
 11
1676.522993466896
 21
2222.9407442533648
  0
LINE
  8
_0-2_
  6
CONTINUOUS
 62
    3
 10
1676.522993466896
 20
2222.9407442533648
 11
1676.247201788497
 21
2222.696878436092
  0
LINE
  8
_0-2_
  6
CONTINUOUS
 62
    3
 10
1676.247201788497
 20
2222.696878436092
 11
1675.9655084066453
 21
2222.4598543332481
  0
LINE
  8
_0-2_
  6
CONTINUOUS
 62
    3
 10
1675.9655084066453
 20
2222.4598543332481
 11
1675.6780830028997
 21
2222.2298147192901
  0
LINE
  8
_0-2_
  6
CONTINUOUS
 62
    3
 10
1675.6780830028997
 20
2222.2298147192901
 11
1675.385098711577
 21
2222.0068981614795
  0
LINE
  8
_0-2_
  6
CONTINUOUS
 62
    3
 10
1675.385098711577
 20
2222.0068981614795
 11
1675.0867320154584
 21
2221.7912389364155
  0
LINE
  8
_0-2_
  6
CONTINUOUS
 62
    3
 10
1675.0867320154584
 20
2221.7912389364155
 11
1674.7831626394845
 21
2221.5829669491513
  0
LINE
  8
_0-2_
  6
CONTINUOUS
 62
    3
 10
1674.7831626394845
 20
2221.5829669491513
 11
1674.4745734424969
 21
2221.3822076549436
  0
LINE
  8
_0-2_
  6
CONTINUOUS
 62
    3
 10
1674.4745734424969
 20
2221.3822076549436
 11
1674.161150307089
 21
2221.1890819836854
  0
LINE
  8
_0-2_
  6
CONTINUOUS
 62
    3
 10
1674.161150307089
 20
2221.1890819836854
 11
1673.8430820276376
 21
2221.0037062670585
  0
LINE
  8
_0-2_
  6
CONTINUOUS
 62
    3
 10
1673.8430820276376
 20
2221.0037062670585
 11
1673.5205601965804
 21
2220.8261921684639
  0
LINE
  8
_0-2_
  6
CONTINUOUS
 62
    3
 10
1673.5205601965804
 20
2220.8261921684639
 11
1673.1937790890097
 21
2220.6566466157565
  0
LINE
  8
_0-2_
  6
CONTINUOUS
 62
    3
 10
1673.1937790890097
 20
2220.6566466157565
 11
1672.8629355456449
 21
2220.4951717368376
  0
LINE
  8
_0-2_
  6
CONTINUOUS
 62
    3
 10
1672.8629355456449
 20
2220.4951717368376
 11
1672.5282288542655
 21
2220.3418647981362
  0
LINE
  8
_0-2_
  6
CONTINUOUS
 62
    3
 10
1672.5282288542655
 20
2220.3418647981362
 11
1672.189860629667
 21
2220.1968181460197
  0
LINE
  8
_0-2_
  6
CONTINUOUS
 62
    3
 10
1672.189860629667
 20
2220.1968181460197
 11
1671.8480346922156
 21
2220.0601191511682
  0
LINE
  8
_0-2_
  6
CONTINUOUS
 62
    3
 10
1671.8480346922156
 20
2220.0601191511682
 11
1671.5029569450739
 21
2219.9318501559442
  0
LINE
  8
_0-2_
  6
CONTINUOUS
 62
    3
 10
1671.5029569450739
 20
2219.9318501559442
 11
1671.1548352501741
 21
2219.8120884247937
  0
LINE
  8
_0-2_
  6
CONTINUOUS
 62
    3
 10
1671.1548352501741
 20
2219.8120884247937
 11
1670.8038793030075
 21
2219.7009060977061
  0
LINE
  8
_0-2_
  6
CONTINUOUS
 62
    3
 10
1670.8038793030075
 20
2219.7009060977061
 11
1670.4503005063139
 21
2219.5983701467576
  0
LINE
  8
_0-2_
  6
CONTINUOUS
 62
    3
 10
1670.4503005063139
 20
2219.5983701467576
 11
1670.0943118427399
 21
2219.504542335771
  0
LINE
  8
_0-2_
  6
CONTINUOUS
 62
    3
 10
1670.0943118427399
 20
2219.504542335771
 11
1669.7361277465436
 21
2219.4194791831114
  0
LINE
  8
_0-2_
  6
CONTINUOUS
 62
    3
 10
1669.7361277465436
 20
2219.4194791831114
 11
1669.3759639744326
 21
2219.3432319276408
  0
LINE
  8
_0-2_
  6
CONTINUOUS
 62
    3
 10
1669.3759639744326
 20
2219.3432319276408
 11
1669.0140374755952
 21
2219.2758464978551
  0
LINE
  8
_0-2_
  6
CONTINUOUS
 62
    3
 10
1669.0140374755952
 20
2219.2758464978551
 11
1668.6505662610211
 21
2219.2173634842175
  0
LINE
  8
_0-2_
  6
CONTINUOUS
 62
    3
 10
1668.6505662610211
 20
2219.2173634842175
 11
1668.2857692721789
 21
2219.1678181147086
  0
LINE
  8
_0-2_
  6
CONTINUOUS
 62
    3
 10
1668.2857692721789
 20
2219.1678181147086
 11
1667.919866249134
 21
2219.1272402336062
  0
LINE
  8
_0-2_
  6
CONTINUOUS
 62
    3
 10
1667.919866249134
 20
2219.1272402336062
 11
1667.5530775981856
 21
2219.0956542835092
  0
LINE
  8
_0-2_
  6
CONTINUOUS
 62
    3
 10
1667.5530775981856
 20
2219.0956542835092
 11
1667.185624259102
 21
2219.0730792906115
  0
LINE
  8
_0-2_
  6
CONTINUOUS
 62
    3
 10
1667.185624259102
 20
2219.0730792906115
 11
1666.8177275720341
 21
2219.0595288532459
  0
LINE
  8
_0-2_
  6
CONTINUOUS
 62
    3
 10
1666.8177275720341
 20
2219.0595288532459
 11
1666.4496091441906
 21
2219.0550111336893
  0
LINE
  8
_0-2_
  6
CONTINUOUS
 62
    3
 10
1666.4496091441906
 20
2219.0550111336893
 11
1505.4496091441906
 21
2219.0550111336893
  0
LINE
  8
_0-2_
  6
CONTINUOUS
 62
    3
 10
1668.4496091441906
 20
2675.0550111336897
 11
1668.4496091441906
 21
2234.0550111336893
  0
LINE
  8
_0-2_
  6
CONTINUOUS
 62
    3
 10
1668.4496091441906
 20
2234.0550111336893
 11
1668.4494585478687
 21
2234.0304680571176
  0
LINE
  8
_0-2_
  6
CONTINUOUS
 62
    3
 10
1668.4494585478687
 20
2234.0304680571176
 11
1668.449006781583
 21
2234.0059286766432
  0
LINE
  8
_0-2_
  6
CONTINUOUS
 62
    3
 10
1668.449006781583
 20
2234.0059286766432
 11
1668.4482539133674
 21
2233.9813966878064
  0
LINE
  8
_0-2_
  6
CONTINUOUS
 62
    3
 10
1668.4482539133674
 20
2233.9813966878064
 11
1668.4472000566009
 21
2233.9568757850343
  0
LINE
  8
_0-2_
  6
CONTINUOUS
 62
    3
 10
1668.4472000566009
 20
2233.9568757850343
 11
1668.4458453699908
 21
2233.9323696610845
  0
LINE
  8
_0-2_
  6
CONTINUOUS
 62
    3
 10
1668.4458453699908
 20
2233.9323696610845
 11
1668.444190057548
 21
2233.9078820064897
  0
LINE
  8
_0-2_
  6
CONTINUOUS
 62
    3
 10
1668.444190057548
 20
2233.9078820064897
 11
1668.4422343685562
 21
2233.8834165090002
  0
LINE
  8
_0-2_
  6
CONTINUOUS
 62
    3
 10
1668.4422343685562
 20
2233.8834165090002
 11
1668.4399785975349
 21
2233.8589768530301
  0
LINE
  8
_0-2_
  6
CONTINUOUS
 62
    3
 10
1668.4399785975349
 20
2233.8589768530301
 11
1668.4374230841954
 21
2233.8345667191015
  0
LINE
  8
_0-2_
  6
CONTINUOUS
 62
    3
 10
1668.4374230841954
 20
2233.8345667191015
 11
1668.434568213388
 21
2233.8101897832908
  0
LINE
  8
_0-2_
  6
CONTINUOUS
 62
    3
 10
1668.434568213388
 20
2233.8101897832908
 11
1668.4314144150462
 21
2233.7858497166749
  0
LINE
  8
_0-2_
  6
CONTINUOUS
 62
    3
 10
1668.4314144150462
 20
2233.7858497166749
 11
1668.4279621641201
 21
2233.7615501847786
  0
LINE
  8
_0-2_
  6
CONTINUOUS
 62
    3
 10
1668.4279621641201
 20
2233.7615501847786
 11
1668.4242119805067
 21
2233.7372948470215
  0
LINE
  8
_0-2_
  6
CONTINUOUS
 62
    3
 10
1668.4242119805067
 20
2233.7372948470215
 11
1668.4201644289687
 21
2233.7130873561687
  0
LINE
  8
_0-2_
  6
CONTINUOUS
 62
    3
 10
1668.4201644289687
 20
2233.7130873561687
 11
1668.415820119053
 21
2233.688931357779
  0
LINE
  8
_0-2_
  6
CONTINUOUS
 62
    3
 10
1668.415820119053
 20
2233.688931357779
 11
1668.411179704997
 21
2233.6648304896571
  0
LINE
  8
_0-2_
  6
CONTINUOUS
 62
    3
 10
1668.411179704997
 20
2233.6648304896571
 11
1668.4062438856299
 21
2233.6407883813044
  0
LINE
  8
_0-2_
  6
CONTINUOUS
 62
    3
 10
1668.4062438856299
 20
2233.6407883813044
 11
1668.4010134042678
 21
2233.6168086533753
  0
LINE
  8
_0-2_
  6
CONTINUOUS
 62
    3
 10
1668.4010134042678
 20
2233.6168086533753
 11
1668.3954890486018
 21
2233.592894917128
  0
LINE
  8
_0-2_
  6
CONTINUOUS
 62
    3
 10
1668.3954890486018
 20
2233.592894917128
 11
1668.3896716505799
 21
2233.5690507738827
  0
LINE
  8
_0-2_
  6
CONTINUOUS
 62
    3
 10
1668.3896716505799
 20
2233.5690507738827
 11
1668.3835620862803
 21
2233.5452798144802
  0
LINE
  8
_0-2_
  6
CONTINUOUS
 62
    3
 10
1668.3835620862803
 20
2233.5452798144802
 11
1668.3771612757819
 21
2233.5215856187397
  0
LINE
  8
_0-2_
  6
CONTINUOUS
 62
    3
 10
1668.3771612757819
 20
2233.5215856187397
 11
1668.3704701830218
 21
2233.497971754919
  0
LINE
  8
_0-2_
  6
CONTINUOUS
 62
    3
 10
1668.3704701830218
 20
2233.497971754919
 11
1668.3634898156552
 21
2233.4744417791803
  0
LINE
  8
_0-2_
  6
CONTINUOUS
 62
    3
 10
1668.3634898156552
 20
2233.4744417791803
 11
1668.3562212248992
 21
2233.4509992350509
  0
LINE
  8
_0-2_
  6
CONTINUOUS
 62
    3
 10
1668.3562212248992
 20
2233.4509992350509
 11
1668.3486655053771
 21
2233.4276476528912
  0
LINE
  8
_0-2_
  6
CONTINUOUS
 62
    3
 10
1668.3486655053771
 20
2233.4276476528912
 11
1668.3408237949518
 21
2233.4043905493645
  0
LINE
  8
_0-2_
  6
CONTINUOUS
 62
    3
 10
1668.3408237949518
 20
2233.4043905493645
 11
1668.3326972745567
 21
2233.3812314269048
  0
LINE
  8
_0-2_
  6
CONTINUOUS
 62
    3
 10
1668.3326972745567
 20
2233.3812314269048
 11
1668.3242871680159
 21
2233.3581737731906
  0
LINE
  8
_0-2_
  6
CONTINUOUS
 62
    3
 10
1668.3242871680159
 20
2233.3581737731906
 11
1668.31559474186
 21
2233.3352210606195
  0
LINE
  8
_0-2_
  6
CONTINUOUS
 62
    3
 10
1668.31559474186
 20
2233.3352210606195
 11
1668.3066213051372
 21
2233.3123767457855
  0
LINE
  8
_0-2_
  6
CONTINUOUS
 62
    3
 10
1668.3066213051372
 20
2233.3123767457855
 11
1668.2973682092133
 21
2233.2896442689589
  0
LINE
  8
_0-2_
  6
CONTINUOUS
 62
    3
 10
1668.2973682092133
 20
2233.2896442689589
 11
1668.2878368475708
 21
2233.2670270535673
  0
LINE
  8
_0-2_
  6
CONTINUOUS
 62
    3
 10
1668.2878368475708
 20
2233.2670270535673
 11
1668.2780286555978
 21
2233.2445285056792
  0
LINE
  8
_0-2_
  6
CONTINUOUS
 62
    3
 10
1668.2780286555978
 20
2233.2445285056792
 11
1668.2679451103718
 21
2233.222152013494
  0
LINE
  8
_0-2_
  6
CONTINUOUS
 62
    3
 10
1668.2679451103718
 20
2233.222152013494
 11
1668.257587730438
 21
2233.1999009468286
  0
LINE
  8
_0-2_
  6
CONTINUOUS
 62
    3
 10
1668.257587730438
 20
2233.1999009468286
 11
1668.2469580755787
 21
2233.1777786566122
  0
LINE
  8
_0-2_
  6
CONTINUOUS
 62
    3
 10
1668.2469580755787
 20
2233.1777786566122
 11
1668.2360577465818
 21
2233.1557884743797
  0
LINE
  8
_0-2_
  6
CONTINUOUS
 62
    3
 10
1668.2360577465818
 20
2233.1557884743797
 11
1668.2248883849966
 21
2233.1339337117729
  0
LINE
  8
_0-2_
  6
CONTINUOUS
 62
    3
 10
1668.2248883849966
 20
2233.1339337117729
 11
1668.2134516728875
 21
2233.112217660037
  0
LINE
  8
_0-2_
  6
CONTINUOUS
 62
    3
 10
1668.2134516728875
 20
2233.112217660037
 11
1668.2017493325816
 21
2233.0906435895308
  0
LINE
  8
_0-2_
  6
CONTINUOUS
 62
    3
 10
1668.2017493325816
 20
2233.0906435895308
 11
1668.1897831264082
 21
2233.0692147492296
  0
LINE
  8
_0-2_
  6
CONTINUOUS
 62
    3
 10
1668.1897831264082
 20
2233.0692147492296
 11
1668.177554856434
 21
2233.0479343662378
  0
LINE
  8
_0-2_
  6
CONTINUOUS
 62
    3
 10
1668.177554856434
 20
2233.0479343662378
 11
1668.1650663641913
 21
2233.0268056453028
  0
LINE
  8
_0-2_
  6
CONTINUOUS
 62
    3
 10
1668.1650663641913
 20
2233.0268056453028
 11
1668.1523195304017
 21
2233.005831768332
  0
LINE
  8
_0-2_
  6
CONTINUOUS
 62
    3
 10
1668.1523195304017
 20
2233.005831768332
 11
1668.1393162746899
 21
2232.9850158939148
  0
LINE
  8
_0-2_
  6
CONTINUOUS
 62
    3
 10
1668.1393162746899
 20
2232.9850158939148
 11
1668.1260585553005
 21
2232.9643611568454
  0
LINE
  8
_0-2_
  6
CONTINUOUS
 62
    3
 10
1668.1260585553005
 20
2232.9643611568454
 11
1668.1125483687958
 21
2232.9438706676501
  0
LINE
  8
_0-2_
  6
CONTINUOUS
 62
    3
 10
1668.1125483687958
 20
2232.9438706676501
 11
1668.098787749761
 21
2232.9235475121222
  0
LINE
  8
_0-2_
  6
CONTINUOUS
 62
    3
 10
1668.098787749761
 20
2232.9235475121222
 11
1668.084778770494
 21
2232.9033947508533
  0
LINE
  8
_0-2_
  6
CONTINUOUS
 62
    3
 10
1668.084778770494
 20
2232.9033947508533
 11
1668.0705235406961
 21
2232.8834154187762
  0
LINE
  8
_0-2_
  6
CONTINUOUS
 62
    3
 10
1668.0705235406961
 20
2232.8834154187762
 11
1668.0560242071522
 21
2232.8636125247044
  0
LINE
  8
_0-2_
  6
CONTINUOUS
 62
    3
 10
1668.0560242071522
 20
2232.8636125247044
 11
1668.0412829534087
 21
2232.8439890508803
  0
LINE
  8
_0-2_
  6
CONTINUOUS
 62
    3
 10
1668.0412829534087
 20
2232.8439890508803
 11
1668.0263019994441
 21
2232.8245479525281
  0
LINE
  8
_0-2_
  6
CONTINUOUS
 62
    3
 10
1668.0263019994441
 20
2232.8245479525281
 11
1668.011083601335
 21
2232.8052921574044
  0
LINE
  8
_0-2_
  6
CONTINUOUS
 62
    3
 10
1668.011083601335
 20
2232.8052921574044
 11
1667.9956300509164
 21
2232.7862245653619
  0
LINE
  8
_0-2_
  6
CONTINUOUS
 62
    3
 10
1667.9956300509164
 20
2232.7862245653619
 11
1667.9799436754361
 21
2232.7673480479093
  0
LINE
  8
_0-2_
  6
CONTINUOUS
 62
    3
 10
1667.9799436754361
 20
2232.7673480479093
 11
1667.9640268372036
 21
2232.7486654477816
  0
LINE
  8
_0-2_
  6
CONTINUOUS
 62
    3
 10
1667.9640268372036
 20
2232.7486654477816
 11
1667.9478819332376
 21
2232.7301795785088
  0
LINE
  8
_0-2_
  6
CONTINUOUS
 62
    3
 10
1667.9478819332376
 20
2232.7301795785088
 11
1667.9315113949008
 21
2232.711893223995
  0
LINE
  8
_0-2_
  6
CONTINUOUS
 62
    3
 10
1667.9315113949008
 20
2232.711893223995
 11
1667.9149176875358
 21
2232.693809138098
  0
LINE
  8
_0-2_
  6
CONTINUOUS
 62
    3
 10
1667.9149176875358
 20
2232.693809138098
 11
1667.898103310094
 21
2232.675930044215
  0
LINE
  8
_0-2_
  6
CONTINUOUS
 62
    3
 10
1667.898103310094
 20
2232.675930044215
 11
1667.8810707947584
 21
2232.6582586348713
  0
LINE
  8
_0-2_
  6
CONTINUOUS
 62
    3
 10
1667.8810707947584
 20
2232.6582586348713
 11
1667.8463616430088
 21
2232.6235494831217
  0
LINE
  8
_0-2_
  6
CONTINUOUS
 62
    3
 10
1667.8463616430088
 20
2232.6235494831217
 11
1667.8286902336649
 21
2232.6065169677863
  0
LINE
  8
_0-2_
  6
CONTINUOUS
 62
    3
 10
1667.8286902336649
 20
2232.6065169677863
 11
1667.8108111397817
 21
2232.5897025903446
  0
LINE
  8
_0-2_
  6
CONTINUOUS
 62
    3
 10
1667.8108111397817
 20
2232.5897025903446
 11
1667.7927270538848
 21
2232.5731088829793
  0
LINE
  8
_0-2_
  6
CONTINUOUS
 62
    3
 10
1667.7927270538848
 20
2232.5731088829793
 11
1667.7744406993711
 21
2232.5567383446423
  0
LINE
  8
_0-2_
  6
CONTINUOUS
 62
    3
 10
1667.7744406993711
 20
2232.5567383446423
 11
1667.7559548300983
 21
2232.5405934406763
  0
LINE
  8
_0-2_
  6
CONTINUOUS
 62
    3
 10
1667.7559548300983
 20
2232.5405934406763
 11
1667.7372722299701
 21
2232.5246766024443
  0
LINE
  8
_0-2_
  6
CONTINUOUS
 62
    3
 10
1667.7372722299701
 20
2232.5246766024443
 11
1667.718395712518
 21
2232.5089902269638
  0
LINE
  8
_0-2_
  6
CONTINUOUS
 62
    3
 10
1667.718395712518
 20
2232.5089902269638
 11
1667.6993281204755
 21
2232.4935366765449
  0
LINE
  8
_0-2_
  6
CONTINUOUS
 62
    3
 10
1667.6993281204755
 20
2232.4935366765449
 11
1667.6800723253521
 21
2232.4783182784363
  0
LINE
  8
_0-2_
  6
CONTINUOUS
 62
    3
 10
1667.6800723253521
 20
2232.4783182784363
 11
1667.6606312269994
 21
2232.4633373244715
  0
LINE
  8
_0-2_
  6
CONTINUOUS
 62
    3
 10
1667.6606312269994
 20
2232.4633373244715
 11
1667.6410077531755
 21
2232.4485960707279
  0
LINE
  8
_0-2_
  6
CONTINUOUS
 62
    3
 10
1667.6410077531755
 20
2232.4485960707279
 11
1667.6212048591037
 21
2232.4340967371841
  0
LINE
  8
_0-2_
  6
CONTINUOUS
 62
    3
 10
1667.6212048591037
 20
2232.4340967371841
 11
1667.6012255270261
 21
2232.4198415073861
  0
LINE
  8
_0-2_
  6
CONTINUOUS
 62
    3
 10
1667.6012255270261
 20
2232.4198415073861
 11
1667.5810727657581
 21
2232.4058325281194
  0
LINE
  8
_0-2_
  6
CONTINUOUS
 62
    3
 10
1667.5810727657581
 20
2232.4058325281194
 11
1667.5607496102298
 21
2232.3920719090843
  0
LINE
  8
_0-2_
  6
CONTINUOUS
 62
    3
 10
1667.5607496102298
 20
2232.3920719090843
 11
1667.540259121035
 21
2232.3785617225794
  0
LINE
  8
_0-2_
  6
CONTINUOUS
 62
    3
 10
1667.540259121035
 20
2232.3785617225794
 11
1667.5196043839649
 21
2232.3653040031895
  0
LINE
  8
_0-2_
  6
CONTINUOUS
 62
    3
 10
1667.5196043839649
 20
2232.3653040031895
 11
1667.4987885095475
 21
2232.3523007474787
  0
LINE
  8
_0-2_
  6
CONTINUOUS
 62
    3
 10
1667.4987885095475
 20
2232.3523007474787
 11
1667.4778146325773
 21
2232.3395539136886
  0
LINE
  8
_0-2_
  6
CONTINUOUS
 62
    3
 10
1667.4778146325773
 20
2232.3395539136886
 11
1667.4566859116421
 21
2232.3270654214462
  0
LINE
  8
_0-2_
  6
CONTINUOUS
 62
    3
 10
1667.4566859116421
 20
2232.3270654214462
 11
1667.4354055286503
 21
2232.3148371514717
  0
LINE
  8
_0-2_
  6
CONTINUOUS
 62
    3
 10
1667.4354055286503
 20
2232.3148371514717
 11
1667.4139766883491
 21
2232.3028709452983
  0
LINE
  8
_0-2_
  6
CONTINUOUS
 62
    3
 10
1667.4139766883491
 20
2232.3028709452983
 11
1667.3924026178427
 21
2232.2911686049924
  0
LINE
  8
_0-2_
  6
CONTINUOUS
 62
    3
 10
1667.3924026178427
 20
2232.2911686049924
 11
1667.3706865661072
 21
2232.2797318928833
  0
LINE
  8
_0-2_
  6
CONTINUOUS
 62
    3
 10
1667.3706865661072
 20
2232.2797318928833
 11
1667.3488318034997
 21
2232.2685625312984
  0
LINE
  8
_0-2_
  6
CONTINUOUS
 62
    3
 10
1667.3488318034997
 20
2232.2685625312984
 11
1667.3268416212677
 21
2232.2576622023012
  0
LINE
  8
_0-2_
  6
CONTINUOUS
 62
    3
 10
1667.3268416212677
 20
2232.2576622023012
 11
1667.3047193310513
 21
2232.2470325474424
  0
LINE
  8
_0-2_
  6
CONTINUOUS
 62
    3
 10
1667.3047193310513
 20
2232.2470325474424
 11
1667.2824682643859
 21
2232.2366751675081
  0
LINE
  8
_0-2_
  6
CONTINUOUS
 62
    3
 10
1667.2824682643859
 20
2232.2366751675081
 11
1667.2600917722007
 21
2232.2265916222823
  0
LINE
  8
_0-2_
  6
CONTINUOUS
 62
    3
 10
1667.2600917722007
 20
2232.2265916222823
 11
1667.2375932243128
 21
2232.2167834303091
  0
LINE
  8
_0-2_
  6
CONTINUOUS
 62
    3
 10
1667.2375932243128
 20
2232.2167834303091
 11
1667.214976008921
 21
2232.2072520686665
  0
LINE
  8
_0-2_
  6
CONTINUOUS
 62
    3
 10
1667.214976008921
 20
2232.2072520686665
 11
1667.1922435320944
 21
2232.1979989727429
  0
LINE
  8
_0-2_
  6
CONTINUOUS
 62
    3
 10
1667.1922435320944
 20
2232.1979989727429
 11
1667.1693992172607
 21
2232.1890255360195
  0
LINE
  8
_0-2_
  6
CONTINUOUS
 62
    3
 10
1667.1693992172607
 20
2232.1890255360195
 11
1667.1464465046895
 21
2232.180333109864
  0
LINE
  8
_0-2_
  6
CONTINUOUS
 62
    3
 10
1667.1464465046895
 20
2232.180333109864
 11
1667.1233888509751
 21
2232.1719230033232
  0
LINE
  8
_0-2_
  6
CONTINUOUS
 62
    3
 10
1667.1233888509751
 20
2232.1719230033232
 11
1667.1002297285149
 21
2232.1637964829283
  0
LINE
  8
_0-2_
  6
CONTINUOUS
 62
    3
 10
1667.1002297285149
 20
2232.1637964829283
 11
1667.0769726249885
 21
2232.1559547725028
  0
LINE
  8
_0-2_
  6
CONTINUOUS
 62
    3
 10
1667.0769726249885
 20
2232.1559547725028
 11
1667.0536210428293
 21
2232.1483990529809
  0
LINE
  8
_0-2_
  6
CONTINUOUS
 62
    3
 10
1667.0536210428293
 20
2232.1483990529809
 11
1667.0301784986996
 21
2232.1411304622247
  0
LINE
  8
_0-2_
  6
CONTINUOUS
 62
    3
 10
1667.0301784986996
 20
2232.1411304622247
 11
1667.0066485229609
 21
2232.1341500948579
  0
LINE
  8
_0-2_
  6
CONTINUOUS
 62
    3
 10
1667.0066485229609
 20
2232.1341500948579
 11
1666.9830346591405
 21
2232.1274590020985
  0
LINE
  8
_0-2_
  6
CONTINUOUS
 62
    3
 10
1666.9830346591405
 20
2232.1274590020985
 11
1666.9593404633997
 21
2232.1210581915993
  0
LINE
  8
_0-2_
  6
CONTINUOUS
 62
    3
 10
1666.9593404633997
 20
2232.1210581915993
 11
1666.9355695039972
 21
2232.1149486273002
  0
LINE
  8
_0-2_
  6
CONTINUOUS
 62
    3
 10
1666.9355695039972
 20
2232.1149486273002
 11
1666.9117253607519
 21
2232.1091312292783
  0
LINE
  8
_0-2_
  6
CONTINUOUS
 62
    3
 10
1666.9117253607519
 20
2232.1091312292783
 11
1666.8878116245041
 21
2232.1036068736121
  0
LINE
  8
_0-2_
  6
CONTINUOUS
 62
    3
 10
1666.8878116245041
 20
2232.1036068736121
 11
1666.8638318965754
 21
2232.09837639225
  0
LINE
  8
_0-2_
  6
CONTINUOUS
 62
    3
 10
1666.8638318965754
 20
2232.09837639225
 11
1666.839789788223
 21
2232.0934405728826
  0
LINE
  8
_0-2_
  6
CONTINUOUS
 62
    3
 10
1666.839789788223
 20
2232.0934405728826
 11
1666.8156889201009
 21
2232.0888001588269
  0
LINE
  8
_0-2_
  6
CONTINUOUS
 62
    3
 10
1666.8156889201009
 20
2232.0888001588269
 11
1666.7915329217112
 21
2232.0844558489116
  0
LINE
  8
_0-2_
  6
CONTINUOUS
 62
    3
 10
1666.7915329217112
 20
2232.0844558489116
 11
1666.7673254308584
 21
2232.0804082973737
  0
LINE
  8
_0-2_
  6
CONTINUOUS
 62
    3
 10
1666.7673254308584
 20
2232.0804082973737
 11
1666.7430700931013
 21
2232.0766581137595
  0
LINE
  8
_0-2_
  6
CONTINUOUS
 62
    3
 10
1666.7430700931013
 20
2232.0766581137595
 11
1666.7187705612048
 21
2232.0732058628337
  0
LINE
  8
_0-2_
  6
CONTINUOUS
 62
    3
 10
1666.7187705612048
 20
2232.0732058628337
 11
1666.6944304945891
 21
2232.0700520644918
  0
LINE
  8
_0-2_
  6
CONTINUOUS
 62
    3
 10
1666.6944304945891
 20
2232.0700520644918
 11
1666.6700535587784
 21
2232.0671971936845
  0
LINE
  8
_0-2_
  6
CONTINUOUS
 62
    3
 10
1666.6700535587784
 20
2232.0671971936845
 11
1666.6456434248498
 21
2232.0646416803447
  0
LINE
  8
_0-2_
  6
CONTINUOUS
 62
    3
 10
1666.6456434248498
 20
2232.0646416803447
 11
1666.6212037688795
 21
2232.0623859093239
  0
LINE
  8
_0-2_
  6
CONTINUOUS
 62
    3
 10
1666.6212037688795
 20
2232.0623859093239
 11
1666.5967382713898
 21
2232.0604302203319
  0
LINE
  8
_0-2_
  6
CONTINUOUS
 62
    3
 10
1666.5967382713898
 20
2232.0604302203319
 11
1666.5722506167954
 21
2232.0587749078891
  0
LINE
  8
_0-2_
  6
CONTINUOUS
 62
    3
 10
1666.5722506167954
 20
2232.0587749078891
 11
1666.5477444928454
 21
2232.0574202212788
  0
LINE
  8
_0-2_
  6
CONTINUOUS
 62
    3
 10
1666.5477444928454
 20
2232.0574202212788
 11
1666.523223590073
 21
2232.0563663645125
  0
LINE
  8
_0-2_
  6
CONTINUOUS
 62
    3
 10
1666.523223590073
 20
2232.0563663645125
 11
1666.4986916012365
 21
2232.0556134962967
  0
LINE
  8
_0-2_
  6
CONTINUOUS
 62
    3
 10
1666.4986916012365
 20
2232.0556134962967
 11
1666.4741522207621
 21
2232.0551617300107
  0
LINE
  8
_0-2_
  6
CONTINUOUS
 62
    3
 10
1666.4741522207621
 20
2232.0551617300107
 11
1666.4496091441906
 21
2232.0550111336893
  0
LINE
  8
_0-2_
  6
CONTINUOUS
 62
    3
 10
1666.4496091441906
 20
2232.0550111336893
 11
1520.4496091441906
 21
2232.0550111336893
  0
LINE
  8
_0-2_
  6
CONTINUOUS
 62
    3
 10
1520.4496091441906
 20
2232.0550111336893
 11
1520.4496091441906
 21
2227.0550111336893
  0
LINE
  8
_0-2_
  6
CONTINUOUS
 62
    3
 10
1520.4496091441906
 20
2227.0550111336893
 11
1666.4496091441906
 21
2227.0550111336893
  0
LINE
  8
_0-2_
  6
CONTINUOUS
 62
    3
 10
1666.4496091441906
 20
2227.0550111336893
 11
1666.621397743851
 21
2227.0571194028162
  0
LINE
  8
_0-2_
  6
CONTINUOUS
 62
    3
 10
1666.621397743851
 20
2227.0571194028162
 11
1666.7930828644826
 21
2227.063442940253
  0
LINE
  8
_0-2_
  6
CONTINUOUS
 62
    3
 10
1666.7930828644826
 20
2227.063442940253
 11
1666.9645610893883
 21
2227.0739779369387
  0
LINE
  8
_0-2_
  6
CONTINUOUS
 62
    3
 10
1666.9645610893883
 20
2227.0739779369387
 11
1667.1357291264976
 21
2227.088718046984
  0
LINE
  8
_0-2_
  6
CONTINUOUS
 62
    3
 10
1667.1357291264976
 20
2227.088718046984
 11
1667.3064838705852
 21
2227.1076543914983
  0
LINE
  8
_0-2_
  6
CONTINUOUS
 62
    3
 10
1667.3064838705852
 20
2227.1076543914983
 11
1667.4767224653781
 21
2227.1307755639364
  0
LINE
  8
_0-2_
  6
CONTINUOUS
 62
    3
 10
1667.4767224653781
 20
2227.1307755639364
 11
1667.6463423655127
 21
2227.1580676369667
  0
LINE
  8
_0-2_
  6
CONTINUOUS
 62
    3
 10
1667.6463423655127
 20
2227.1580676369667
 11
1667.8152413983034
 21
2227.1895141708669
  0
LINE
  8
_0-2_
  6
CONTINUOUS
 62
    3
 10
1667.8152413983034
 20
2227.1895141708669
 11
1667.9833178252886
 21
2227.2250962234198
  0
LINE
  8
_0-2_
  6
CONTINUOUS
 62
    3
 10
1667.9833178252886
 20
2227.2250962234198
 11
1668.1504704035135
 21
2227.2647923613276
  0
LINE
  8
_0-2_
  6
CONTINUOUS
 62
    3
 10
1668.1504704035135
 20
2227.2647923613276
 11
1668.3165984465149
 21
2227.3085786731212
  0
LINE
  8
_0-2_
  6
CONTINUOUS
 62
    3
 10
1668.3165984465149
 20
2227.3085786731212
 11
1668.4816018849715
 21
2227.3564287835638
  0
LINE
  8
_0-2_
  6
CONTINUOUS
 62
    3
 10
1668.4816018849715
 20
2227.3564287835638
 11
1668.6453813269827
 21
2227.4083138695382
  0
LINE
  8
_0-2_
  6
CONTINUOUS
 62
    3
 10
1668.6453813269827
 20
2227.4083138695382
 11
1668.8078381179362
 21
2227.4642026774081
  0
LINE
  8
_0-2_
  6
CONTINUOUS
 62
    3
 10
1668.8078381179362
 20
2227.4642026774081
 11
1668.9688743999354
 21
2227.5240615418461
  0
LINE
  8
_0-2_
  6
CONTINUOUS
 62
    3
 10
1668.9688743999354
 20
2227.5240615418461
 11
1669.1283931707462
 21
2227.5878544061102
  0
LINE
  8
_0-2_
  6
CONTINUOUS
 62
    3
 10
1669.1283931707462
 20
2227.5878544061102
 11
1669.2862983422256
 21
2227.6555428437646
  0
LINE
  8
_0-2_
  6
CONTINUOUS
 62
    3
 10
1669.2862983422256
 20
2227.6555428437646
 11
1669.4424947982025
 21
2227.7270860818253
  0
LINE
  8
_0-2_
  6
CONTINUOUS
 62
    3
 10
1669.4424947982025
 20
2227.7270860818253
 11
1669.5968884517729
 21
2227.8024410253211
  0
LINE
  8
_0-2_
  6
CONTINUOUS
 62
    3
 10
1669.5968884517729
 20
2227.8024410253211
 11
1669.7493863019724
 21
2227.8815622832512
  0
LINE
  8
_0-2_
  6
CONTINUOUS
 62
    3
 10
1669.7493863019724
 20
2227.8815622832512
 11
1669.8998964897989
 21
2227.9644021959284
  0
LINE
  8
_0-2_
  6
CONTINUOUS
 62
    3
 10
1669.8998964897989
 20
2227.9644021959284
 11
1670.0483283535432
 21
2228.0509108636875
  0
LINE
  8
_0-2_
  6
CONTINUOUS
 62
    3
 10
1670.0483283535432
 20
2228.0509108636875
 11
1670.1945924834001
 21
2228.1410361769413
  0
LINE
  8
_0-2_
  6
CONTINUOUS
 62
    3
 10
1670.1945924834001
 20
2228.1410361769413
 11
1670.3386007753279
 21
2228.2347238475718
  0
LINE
  8
_0-2_
  6
CONTINUOUS
 62
    3
 10
1670.3386007753279
 20
2228.2347238475718
 11
1670.4802664841154
 21
2228.3319174416283
  0
LINE
  8
_0-2_
  6
CONTINUOUS
 62
    3
 10
1670.4802664841154
 20
2228.3319174416283
 11
1670.6195042756376
 21
2228.4325584133248
  0
LINE
  8
_0-2_
  6
CONTINUOUS
 62
    3
 10
1670.6195042756376
 20
2228.4325584133248
 11
1670.7562302782549
 21
2228.5365861403029
  0
LINE
  8
_0-2_
  6
CONTINUOUS
 62
    3
 10
1670.7562302782549
 20
2228.5365861403029
 11
1670.8903621333361
 21
2228.6439379601502
  0
LINE
  8
_0-2_
  6
CONTINUOUS
 62
    3
 10
1670.8903621333361
 20
2228.6439379601502
 11
1671.0218190448672
 21
2228.754549208144
  0
LINE
  8
_0-2_
  6
CONTINUOUS
 62
    3
 10
1671.0218190448672
 20
2228.754549208144
 11
1671.1505218281197
 21
2228.8683532562045
  0
LINE
  8
_0-2_
  6
CONTINUOUS
 62
    3
 10
1671.1505218281197
 20
2228.8683532562045
 11
1671.27639295735
 21
2228.9852815530294
  0
LINE
  8
_0-2_
  6
CONTINUOUS
 62
    3
 10
1671.27639295735
 20
2228.9852815530294
 11
1671.3993566124964
 21
2229.1052636653835
  0
LINE
  8
_0-2_
  6
CONTINUOUS
 62
    3
 10
1671.3993566124964
 20
2229.1052636653835
 11
1671.5193387248507
 21
2229.2282273205301
  0
LINE
  8
_0-2_
  6
CONTINUOUS
 62
    3
 10
1671.5193387248507
 20
2229.2282273205301
 11
1671.6362670216749
 21
2229.3540984497604
  0
LINE
  8
_0-2_
  6
CONTINUOUS
 62
    3
 10
1671.6362670216749
 20
2229.3540984497604
 11
1671.7500710697359
 21
2229.4828012330127
  0
LINE
  8
_0-2_
  6
CONTINUOUS
 62
    3
 10
1671.7500710697359
 20
2229.4828012330127
 11
1671.8606823177297
 21
2229.6142581445438
  0
LINE
  8
_0-2_
  6
CONTINUOUS
 62
    3
 10
1671.8606823177297
 20
2229.6142581445438
 11
1671.9680341375765
 21
2229.748389999625
  0
LINE
  8
_0-2_
  6
CONTINUOUS
 62
    3
 10
1671.9680341375765
 20
2229.748389999625
 11
1672.0720618645551
 21
2229.8851160022423
  0
LINE
  8
_0-2_
  6
CONTINUOUS
 62
    3
 10
1672.0720618645551
 20
2229.8851160022423
 11
1672.1727028362516
 21
2230.0243537937645
  0
LINE
  8
_0-2_
  6
CONTINUOUS
 62
    3
 10
1672.1727028362516
 20
2230.0243537937645
 11
1672.2698964303083
 21
2230.1660195025524
  0
LINE
  8
_0-2_
  6
CONTINUOUS
 62
    3
 10
1672.2698964303083
 20
2230.1660195025524
 11
1672.3635841009382
 21
2230.3100277944795
  0
LINE
  8
_0-2_
  6
CONTINUOUS
 62
    3
 10
1672.3635841009382
 20
2230.3100277944795
 11
1672.4537094141924
 21
2230.4562919243372
  0
LINE
  8
_0-2_
  6
CONTINUOUS
 62
    3
 10
1672.4537094141924
 20
2230.4562919243372
 11
1672.5402180819515
 21
2230.6047237880807
  0
LINE
  8
_0-2_
  6
CONTINUOUS
 62
    3
 10
1672.5402180819515
 20
2230.6047237880807
 11
1672.6230579946291
 21
2230.7552339759072
  0
LINE
  8
_0-2_
  6
CONTINUOUS
 62
    3
 10
1672.6230579946291
 20
2230.7552339759072
 11
1672.7021792525591
 21
2230.907731826107
  0
LINE
  8
_0-2_
  6
CONTINUOUS
 62
    3
 10
1672.7021792525591
 20
2230.907731826107
 11
1672.7775341960546
 21
2231.0621254796774
  0
LINE
  8
_0-2_
  6
CONTINUOUS
 62
    3
 10
1672.7775341960546
 20
2231.0621254796774
 11
1672.8490774341153
 21
2231.2183219356543
  0
LINE
  8
_0-2_
  6
CONTINUOUS
 62
    3
 10
1672.8490774341153
 20
2231.2183219356543
 11
1672.9167658717693
 21
2231.3762271071337
  0
LINE
  8
_0-2_
  6
CONTINUOUS
 62
    3
 10
1672.9167658717693
 20
2231.3762271071337
 11
1672.9805587360338
 21
2231.5357458779445
  0
LINE
  8
_0-2_
  6
CONTINUOUS
 62
    3
 10
1672.9805587360338
 20
2231.5357458779445
 11
1673.0404176004718
 21
2231.6967821599437
  0
LINE
  8
_0-2_
  6
CONTINUOUS
 62
    3
 10
1673.0404176004718
 20
2231.6967821599437
 11
1673.0963064083421
 21
2231.8592389508972
  0
LINE
  8
_0-2_
  6
CONTINUOUS
 62
    3
 10
1673.0963064083421
 20
2231.8592389508972
 11
1673.1481914943161
 21
2232.0230183929079
  0
LINE
  8
_0-2_
  6
CONTINUOUS
 62
    3
 10
1673.1481914943161
 20
2232.0230183929079
 11
1673.1960416047586
 21
2232.1880218313654
  0
LINE
  8
_0-2_
  6
CONTINUOUS
 62
    3
 10
1673.1960416047586
 20
2232.1880218313654
 11
1673.2398279165525
 21
2232.3541498743666
  0
LINE
  8
_0-2_
  6
CONTINUOUS
 62
    3
 10
1673.2398279165525
 20
2232.3541498743666
 11
1673.2795240544604
 21
2232.521302452591
  0
LINE
  8
_0-2_
  6
CONTINUOUS
 62
    3
 10
1673.2795240544604
 20
2232.521302452591
 11
1673.3151061070132
 21
2232.6893788795765
  0
LINE
  8
_0-2_
  6
CONTINUOUS
 62
    3
 10
1673.3151061070132
 20
2232.6893788795765
 11
1673.3465526409132
 21
2232.8582779123672
  0
LINE
  8
_0-2_
  6
CONTINUOUS
 62
    3
 10
1673.3465526409132
 20
2232.8582779123672
 11
1673.373844713944
 21
2233.0278978125016
  0
LINE
  8
_0-2_
  6
CONTINUOUS
 62
    3
 10
1673.373844713944
 20
2233.0278978125016
 11
1673.3969658863816
 21
2233.1981364072949
  0
LINE
  8
_0-2_
  6
CONTINUOUS
 62
    3
 10
1673.3969658863816
 20
2233.1981364072949
 11
1673.4159022308959
 21
2233.3688911513823
  0
LINE
  8
_0-2_
  6
CONTINUOUS
 62
    3
 10
1673.4159022308959
 20
2233.3688911513823
 11
1673.4306423409412
 21
2233.5400591884918
  0
LINE
  8
_0-2_
  6
CONTINUOUS
 62
    3
 10
1673.4306423409412
 20
2233.5400591884918
 11
1673.4411773376269
 21
2233.7115374133973
  0
LINE
  8
_0-2_
  6
CONTINUOUS
 62
    3
 10
1673.4411773376269
 20
2233.7115374133973
 11
1673.4475008750637
 21
2233.8832225340288
  0
LINE
  8
_0-2_
  6
CONTINUOUS
 62
    3
 10
1673.4475008750637
 20
2233.8832225340288
 11
1673.4496091441906
 21
2234.0550111336893
  0
LINE
  8
_0-2_
  6
CONTINUOUS
 62
    3
 10
1673.4496091441906
 20
2234.0550111336893
 11
1673.4496091441906
 21
2675.0550111336897
  0
LINE
  8
_0-2_
  6
CONTINUOUS
 62
    3
 10
1673.4496091441906
 20
2675.0550111336897
 11
1668.4496091441906
 21
2675.0550111336897
  0
LINE
  8
_0-2_
  6
CONTINUOUS
 62
    3
 10
1777.4496091441906
 20
2659.3066253587153
 11
1686.4496091441906
 21
2659.3066253587153
  0
LINE
  8
_0-2_
  6
CONTINUOUS
 62
    3
 10
1504.9496091441906
 20
2700.6199711726722
 11
1206.4496091441906
 21
2700.6199711726722
  0
LINE
  8
_0-2_
  6
CONTINUOUS
 62
    3
 10
1232.4496091441906
 20
2196.0550111336893
 11
1305.4496091441906
 21
2196.0550111336893
  0
LINE
  8
_0-2_
  6
CONTINUOUS
 62
    3
 10
1232.4496091441906
 20
2196.0550111336893
 11
1232.4496091441906
 21
2224.0550111336893
  0
LINE
  8
_0-2_
  6
CONTINUOUS
 62
    3
 10
1305.4496091441906
 20
2196.0550111336893
 11
1305.4496091441906
 21
2224.0550111336893
  0
LINE
  8
_0-2_
  6
CONTINUOUS
 62
    3
 10
1232.4496091441906
 20
2224.0550111336893
 11
1305.4496091441906
 21
2224.0550111336893
  0
LINE
  8
_0-2_
  6
CONTINUOUS
 62
    3
 10
1341.4496091441906
 20
2675.0550111336897
 11
1341.4496091441906
 21
2214.4900510947064
  0
LINE
  8
_0-2_
  6
CONTINUOUS
 62
    3
 10
1232.4496091441906
 20
2240.0550111336893
 11
1323.4496091441906
 21
2240.0550111336893
  0
LINE
  8
_0-2_
  6
CONTINUOUS
 62
    3
 10
1504.4496091441908
 20
2214.0550111336893
 11
1343.4496091441908
 21
2214.0550111336893
  0
LINE
  8
_0-2_
  6
CONTINUOUS
 62
    3
 10
1343.4496091441908
 20
2214.0550111336893
 11
1342.9587845737324
 21
2214.0610347597653
  0
LINE
  8
_0-2_
  6
CONTINUOUS
 62
    3
 10
1342.9587845737324
 20
2214.0610347597653
 11
1342.4682556576427
 21
2214.0791020095858
  0
LINE
  8
_0-2_
  6
CONTINUOUS
 62
    3
 10
1342.4682556576427
 20
2214.0791020095858
 11
1341.9783178721973
 21
2214.1092020001156
  0
LINE
  8
_0-2_
  6
CONTINUOUS
 62
    3
 10
1341.9783178721973
 20
2214.1092020001156
 11
1341.4892663375997
 21
2214.1513166002455
  0
LINE
  8
_0-2_
  6
CONTINUOUS
 62
    3
 10
1341.4892663375997
 20
2214.1513166002455
 11
1341.0013956402065
 21
2214.205420441715
  0
LINE
  8
_0-2_
  6
CONTINUOUS
 62
    3
 10
1341.0013956402065
 20
2214.205420441715
 11
1340.5149996550836
 21
2214.2714809343938
  0
LINE
  8
_0-2_
  6
CONTINUOUS
 62
    3
 10
1340.5149996550836
 20
2214.2714809343938
 11
1340.0303713689848
 21
2214.3494582859107
  0
LINE
  8
_0-2_
  6
CONTINUOUS
 62
    3
 10
1340.0303713689848
 20
2214.3494582859107
 11
1339.5478027038685
 21
2214.4393055256246
  0
LINE
  8
_0-2_
  6
CONTINUOUS
 62
    3
 10
1339.5478027038685
 20
2214.4393055256246
 11
1339.0675843410534
 21
2214.5409685329187
  0
LINE
  8
_0-2_
  6
CONTINUOUS
 62
    3
 10
1339.0675843410534
 20
2214.5409685329187
 11
1338.5900055461257
 21
2214.6543860697984
  0
LINE
  8
_0-2_
  6
CONTINUOUS
 62
    3
 10
1338.5900055461257
 20
2214.6543860697984
 11
1338.1153539946927
 21
2214.7794898177804
  0
LINE
  8
_0-2_
  6
CONTINUOUS
 62
    3
 10
1338.1153539946927
 20
2214.7794898177804
 11
1337.6439155991015
 21
2214.9162044190452
  0
LINE
  8
_0-2_
  6
CONTINUOUS
 62
    3
 10
1337.6439155991015
 20
2214.9162044190452
 11
1337.1759743362127
 21
2215.0644475218287
  0
LINE
  8
_0-2_
  6
CONTINUOUS
 62
    3
 10
1337.1759743362127
 20
2215.0644475218287
 11
1336.7118120763464
 21
2215.2241298300287
  0
LINE
  8
_0-2_
  6
CONTINUOUS
 62
    3
 10
1336.7118120763464
 20
2215.2241298300287
 11
1336.2517084134911
 21
2215.3951551569944
  0
LINE
  8
_0-2_
  6
CONTINUOUS
 62
    3
 10
1336.2517084134911
 20
2215.3951551569944
 11
1335.795940496889
 21
2215.5774204834634
  0
LINE
  8
_0-2_
  6
CONTINUOUS
 62
    3
 10
1335.795940496889
 20
2215.5774204834634
 11
1335.344782864091
 21
2215.7708160196189
  0
LINE
  8
_0-2_
  6
CONTINUOUS
 62
    3
 10
1335.344782864091
 20
2215.7708160196189
 11
1334.8985072755852
 21
2215.9752252712206
  0
LINE
  8
_0-2_
  6
CONTINUOUS
 62
    3
 10
1334.8985072755852
 20
2215.9752252712206
 11
1334.4573825510988
 21
2216.1905251097787
  0
LINE
  8
_0-2_
  6
CONTINUOUS
 62
    3
 10
1334.4573825510988
 20
2216.1905251097787
 11
1334.0216744076706
 21
2216.4165858467222
  0
LINE
  8
_0-2_
  6
CONTINUOUS
 62
    3
 10
1334.0216744076706
 20
2216.4165858467222
 11
1333.5916452995953
 21
2216.6532713115153
  0
LINE
  8
_0-2_
  6
CONTINUOUS
 62
    3
 10
1333.5916452995953
 20
2216.6532713115153
 11
1333.1675542603264
 21
2216.9004389336842
  0
LINE
  8
_0-2_
  6
CONTINUOUS
 62
    3
 10
1333.1675542603264
 20
2216.9004389336842
 11
1332.7496567464486
 21
2217.1579398286949
  0
LINE
  8
_0-2_
  6
CONTINUOUS
 62
    3
 10
1332.7496567464486
 20
2217.1579398286949
 11
1332.3382044837988
 21
2217.4256188876384
  0
LINE
  8
_0-2_
  6
CONTINUOUS
 62
    3
 10
1332.3382044837988
 20
2217.4256188876384
 11
1331.933445315834
 21
2217.7033148706578
  0
LINE
  8
_0-2_
  6
CONTINUOUS
 62
    3
 10
1331.933445315834
 20
2217.7033148706578
 11
1331.5356230543421
 21
2217.9908605040764
  0
LINE
  8
_0-2_
  6
CONTINUOUS
 62
    3
 10
1331.5356230543421
 20
2217.9908605040764
 11
1331.1449773325783
 21
2218.2880825811571
  0
LINE
  8
_0-2_
  6
CONTINUOUS
 62
    3
 10
1331.1449773325783
 20
2218.2880825811571
 11
1330.7617434609178
 21
2218.5948020664346
  0
LINE
  8
_0-2_
  6
CONTINUOUS
 62
    3
 10
1330.7617434609178
 20
2218.5948020664346
 11
1330.3861522851153
 21
2218.9108342035597
  0
LINE
  8
_0-2_
  6
CONTINUOUS
 62
    3
 10
1330.3861522851153
 20
2218.9108342035597
 11
1330.0184300472504
 21
2219.2359886265904
  0
LINE
  8
_0-2_
  6
CONTINUOUS
 62
    3
 10
1330.0184300472504
 20
2219.2359886265904
 11
1329.6587982494495
 21
2219.5700694746602
  0
LINE
  8
_0-2_
  6
CONTINUOUS
 62
    3
 10
1329.6587982494495
 20
2219.5700694746602
 11
1329.30747352046
 21
2219.9128755099582
  0
LINE
  8
_0-2_
  6
CONTINUOUS
 62
    3
 10
1329.30747352046
 20
2219.9128755099582
 11
1328.9646674851615
 21
2220.264200238948
  0
LINE
  8
_0-2_
  6
CONTINUOUS
 62
    3
 10
1328.9646674851615
 20
2220.264200238948
 11
1328.6305866370917
 21
2220.6238320367488
  0
LINE
  8
_0-2_
  6
CONTINUOUS
 62
    3
 10
1328.6305866370917
 20
2220.6238320367488
 11
1328.3054322140611
 21
2220.9915542746139
  0
LINE
  8
_0-2_
  6
CONTINUOUS
 62
    3
 10
1328.3054322140611
 20
2220.9915542746139
 11
1327.9894000769359
 21
2221.3671454504165
  0
LINE
  8
_0-2_
  6
CONTINUOUS
 62
    3
 10
1327.9894000769359
 20
2221.3671454504165
 11
1327.6826805916587
 21
2221.7503793220767
  0
LINE
  8
_0-2_
  6
CONTINUOUS
 62
    3
 10
1327.6826805916587
 20
2221.7503793220767
 11
1327.3854585145777
 21
2222.1410250438407
  0
LINE
  8
_0-2_
  6
CONTINUOUS
 62
    3
 10
1327.3854585145777
 20
2222.1410250438407
 11
1327.0979128811591
 21
2222.5388473053322
  0
LINE
  8
_0-2_
  6
CONTINUOUS
 62
    3
 10
1327.0979128811591
 20
2222.5388473053322
 11
1326.8202168981402
 21
2222.9436064732972
  0
LINE
  8
_0-2_
  6
CONTINUOUS
 62
    3
 10
1326.8202168981402
 20
2222.9436064732972
 11
1326.5525378391967
 21
2223.3550587359473
  0
LINE
  8
_0-2_
  6
CONTINUOUS
 62
    3
 10
1326.5525378391967
 20
2223.3550587359473
 11
1326.2950369441853
 21
2223.7729562498248
  0
LINE
  8
_0-2_
  6
CONTINUOUS
 62
    3
 10
1326.2950369441853
 20
2223.7729562498248
 11
1326.0478693220166
 21
2224.1970472890935
  0
LINE
  8
_0-2_
  6
CONTINUOUS
 62
    3
 10
1326.0478693220166
 20
2224.1970472890935
 11
1325.811183857224
 21
2224.6270763971693
  0
LINE
  8
_0-2_
  6
CONTINUOUS
 62
    3
 10
1325.811183857224
 20
2224.6270763971693
 11
1325.5851231202805
 21
2225.062784540597
  0
LINE
  8
_0-2_
  6
CONTINUOUS
 62
    3
 10
1325.5851231202805
 20
2225.062784540597
 11
1325.3698232817219
 21
2225.5039092650836
  0
LINE
  8
_0-2_
  6
CONTINUOUS
 62
    3
 10
1325.3698232817219
 20
2225.5039092650836
 11
1325.1654140301202
 21
2225.9501848535892
  0
LINE
  8
_0-2_
  6
CONTINUOUS
 62
    3
 10
1325.1654140301202
 20
2225.9501848535892
 11
1324.9720184939652
 21
2226.4013424863874
  0
LINE
  8
_0-2_
  6
CONTINUOUS
 62
    3
 10
1324.9720184939652
 20
2226.4013424863874
 11
1324.789753167496
 21
2226.8571104029893
  0
LINE
  8
_0-2_
  6
CONTINUOUS
 62
    3
 10
1324.789753167496
 20
2226.8571104029893
 11
1324.6187278405305
 21
2227.3172140658448
  0
LINE
  8
_0-2_
  6
CONTINUOUS
 62
    3
 10
1324.6187278405305
 20
2227.3172140658448
 11
1324.45904553233
 21
2227.7813763257113
  0
LINE
  8
_0-2_
  6
CONTINUOUS
 62
    3
 10
1324.45904553233
 20
2227.7813763257113
 11
1324.3108024295466
 21
2228.2493175886002
  0
LINE
  8
_0-2_
  6
CONTINUOUS
 62
    3
 10
1324.3108024295466
 20
2228.2493175886002
 11
1324.1740878282822
 21
2228.7207559841913
  0
LINE
  8
_0-2_
  6
CONTINUOUS
 62
    3
 10
1324.1740878282822
 20
2228.7207559841913
 11
1324.0489840803
 21
2229.1954075356239
  0
LINE
  8
_0-2_
  6
CONTINUOUS
 62
    3
 10
1324.0489840803
 20
2229.1954075356239
 11
1323.9355665434205
 21
2229.6729863305518
  0
LINE
  8
_0-2_
  6
CONTINUOUS
 62
    3
 10
1323.9355665434205
 20
2229.6729863305518
 11
1323.8339035361262
 21
2230.1532046933667
  0
LINE
  8
_0-2_
  6
CONTINUOUS
 62
    3
 10
1323.8339035361262
 20
2230.1532046933667
 11
1323.7440562964121
 21
2230.6357733584832
  0
LINE
  8
_0-2_
  6
CONTINUOUS
 62
    3
 10
1323.7440562964121
 20
2230.6357733584832
 11
1323.6660789448952
 21
2231.1204016445818
  0
LINE
  8
_0-2_
  6
CONTINUOUS
 62
    3
 10
1323.6660789448952
 20
2231.1204016445818
 11
1323.6000184522165
 21
2231.6067976297049
  0
LINE
  8
_0-2_
  6
CONTINUOUS
 62
    3
 10
1323.6000184522165
 20
2231.6067976297049
 11
1323.5459146107469
 21
2232.0946683270981
  0
LINE
  8
_0-2_
  6
CONTINUOUS
 62
    3
 10
1323.5459146107469
 20
2232.0946683270981
 11
1323.5038000106169
 21
2232.583719861696
  0
LINE
  8
_0-2_
  6
CONTINUOUS
 62
    3
 10
1323.5038000106169
 20
2232.583719861696
 11
1323.4737000200876
 21
2233.0736576471409
  0
LINE
  8
_0-2_
  6
CONTINUOUS
 62
    3
 10
1323.4737000200876
 20
2233.0736576471409
 11
1323.4556327702667
 21
2233.564186563231
  0
LINE
  8
_0-2_
  6
CONTINUOUS
 62
    3
 10
1323.4556327702667
 20
2233.564186563231
 11
1323.4496091441906
 21
2234.0550111336893
  0
LINE
  8
_0-2_
  6
CONTINUOUS
 62
    3
 10
1323.4496091441906
 20
2234.0550111336893
 11
1323.4496091441906
 21
2675.0550111336897
  0
LINE
  8
_0-2_
  6
CONTINUOUS
 62
    3
 10
1323.4496091441906
 20
2675.0550111336897
 11
1328.4496091441906
 21
2675.0550111336897
  0
LINE
  8
_0-2_
  6
CONTINUOUS
 62
    3
 10
1328.4496091441906
 20
2675.0550111336897
 11
1328.4496091441906
 21
2234.0550111336893
  0
LINE
  8
_0-2_
  6
CONTINUOUS
 62
    3
 10
1328.4496091441906
 20
2234.0550111336893
 11
1328.4541268637477
 21
2233.6868927058454
  0
LINE
  8
_0-2_
  6
CONTINUOUS
 62
    3
 10
1328.4541268637477
 20
2233.6868927058454
 11
1328.4676773011131
 21
2233.3189960187783
  0
LINE
  8
_0-2_
  6
CONTINUOUS
 62
    3
 10
1328.4676773011131
 20
2233.3189960187783
 11
1328.4902522940104
 21
2232.9515426796943
  0
LINE
  8
_0-2_
  6
CONTINUOUS
 62
    3
 10
1328.4902522940104
 20
2232.9515426796943
 11
1328.5218382441078
 21
2232.5847540287459
  0
LINE
  8
_0-2_
  6
CONTINUOUS
 62
    3
 10
1328.5218382441078
 20
2232.5847540287459
 11
1328.5624161252101
 21
2232.2188510057008
  0
LINE
  8
_0-2_
  6
CONTINUOUS
 62
    3
 10
1328.5624161252101
 20
2232.2188510057008
 11
1328.611961494719
 21
2231.8540540168588
  0
LINE
  8
_0-2_
  6
CONTINUOUS
 62
    3
 10
1328.611961494719
 20
2231.8540540168588
 11
1328.6704445083565
 21
2231.4905828022847
  0
LINE
  8
_0-2_
  6
CONTINUOUS
 62
    3
 10
1328.6704445083565
 20
2231.4905828022847
 11
1328.7378299381426
 21
2231.1286563034473
  0
LINE
  8
_0-2_
  6
CONTINUOUS
 62
    3
 10
1328.7378299381426
 20
2231.1286563034473
 11
1328.8140771936128
 21
2230.7684925313361
  0
LINE
  8
_0-2_
  6
CONTINUOUS
 62
    3
 10
1328.8140771936128
 20
2230.7684925313361
 11
1328.8991403462726
 21
2230.41030843514
  0
LINE
  8
_0-2_
  6
CONTINUOUS
 62
    3
 10
1328.8991403462726
 20
2230.41030843514
 11
1328.9929681572589
 21
2230.0543197715656
  0
LINE
  8
_0-2_
  6
CONTINUOUS
 62
    3
 10
1328.9929681572589
 20
2230.0543197715656
 11
1329.0955041082075
 21
2229.7007409748726
  0
LINE
  8
_0-2_
  6
CONTINUOUS
 62
    3
 10
1329.0955041082075
 20
2229.7007409748726
 11
1329.2066864352951
 21
2229.3497850277063
  0
LINE
  8
_0-2_
  6
CONTINUOUS
 62
    3
 10
1329.2066864352951
 20
2229.3497850277063
 11
1329.3264481664455
 21
2229.0016633328059
  0
LINE
  8
_0-2_
  6
CONTINUOUS
 62
    3
 10
1329.3264481664455
 20
2229.0016633328059
 11
1329.4547171616696
 21
2228.6565855856643
  0
LINE
  8
_0-2_
  6
CONTINUOUS
 62
    3
 10
1329.4547171616696
 20
2228.6565855856643
 11
1329.5914161565215
 21
2228.3147596482131
  0
LINE
  8
_0-2_
  6
CONTINUOUS
 62
    3
 10
1329.5914161565215
 20
2228.3147596482131
 11
1329.7364628086375
 21
2227.9763914236146
  0
LINE
  8
_0-2_
  6
CONTINUOUS
 62
    3
 10
1329.7364628086375
 20
2227.9763914236146
 11
1329.8897697473394
 21
2227.6416847322353
  0
LINE
  8
_0-2_
  6
CONTINUOUS
 62
    3
 10
1329.8897697473394
 20
2227.6416847322353
 11
1330.0512446262583
 21
2227.3108411888702
  0
LINE
  8
_0-2_
  6
CONTINUOUS
 62
    3
 10
1330.0512446262583
 20
2227.3108411888702
 11
1330.2207901789654
 21
2226.9840600812995
  0
LINE
  8
_0-2_
  6
CONTINUOUS
 62
    3
 10
1330.2207901789654
 20
2226.9840600812995
 11
1330.3983042775601
 21
2226.6615382502423
  0
LINE
  8
_0-2_
  6
CONTINUOUS
 62
    3
 10
1330.3983042775601
 20
2226.6615382502423
 11
1330.5836799941867
 21
2226.3434699707909
  0
LINE
  8
_0-2_
  6
CONTINUOUS
 62
    3
 10
1330.5836799941867
 20
2226.3434699707909
 11
1330.7768056654454
 21
2226.030046835383
  0
LINE
  8
_0-2_
  6
CONTINUOUS
 62
    3
 10
1330.7768056654454
 20
2226.030046835383
 11
1330.9775649596527
 21
2225.7214576383953
  0
LINE
  8
_0-2_
  6
CONTINUOUS
 62
    3
 10
1330.9775649596527
 20
2225.7214576383953
 11
1331.1858369469173
 21
2225.4178882624219
  0
LINE
  8
_0-2_
  6
CONTINUOUS
 62
    3
 10
1331.1858369469173
 20
2225.4178882624219
 11
1331.4014961719813
 21
2225.1195215663029
  0
LINE
  8
_0-2_
  6
CONTINUOUS
 62
    3
 10
1331.4014961719813
 20
2225.1195215663029
 11
1331.6244127297914
 21
2224.8265372749797
  0
LINE
  8
_0-2_
  6
CONTINUOUS
 62
    3
 10
1331.6244127297914
 20
2224.8265372749797
 11
1331.8544523437499
 21
2224.539111871235
  0
LINE
  8
_0-2_
  6
CONTINUOUS
 62
    3
 10
1331.8544523437499
 20
2224.539111871235
 11
1332.0914764465938
 21
2224.2574184893829
  0
LINE
  8
_0-2_
  6
CONTINUOUS
 62
    3
 10
1332.0914764465938
 20
2224.2574184893829
 11
1332.3353422638666
 21
2223.9816268109839
  0
LINE
  8
_0-2_
  6
CONTINUOUS
 62
    3
 10
1332.3353422638666
 20
2223.9816268109839
 11
1332.5859028999189
 21
2223.7119029626333
  0
LINE
  8
_0-2_
  6
CONTINUOUS
 62
    3
 10
1332.5859028999189
 20
2223.7119029626333
 11
1332.8430074263927
 21
2223.4484094158911
  0
LINE
  8
_0-2_
  6
CONTINUOUS
 62
    3
 10
1332.8430074263927
 20
2223.4484094158911
 11
1333.1065009731351
 21
2223.1913048894176
  0
LINE
  8
_0-2_
  6
CONTINUOUS
 62
    3
 10
1333.1065009731351
 20
2223.1913048894176
 11
1333.3762248214857
 21
2222.9407442533652
  0
LINE
  8
_0-2_
  6
CONTINUOUS
 62
    3
 10
1333.3762248214857
 20
2222.9407442533652
 11
1333.6520164998842
 21
2222.696878436092
  0
LINE
  8
_0-2_
  6
CONTINUOUS
 62
    3
 10
1333.6520164998842
 20
2222.696878436092
 11
1333.9337098817361
 21
2222.4598543332486
  0
LINE
  8
_0-2_
  6
CONTINUOUS
 62
    3
 10
1333.9337098817361
 20
2222.4598543332486
 11
1334.2211352854815
 21
2222.2298147192905
  0
LINE
  8
_0-2_
  6
CONTINUOUS
 62
    3
 10
1334.2211352854815
 20
2222.2298147192905
 11
1334.5141195768044
 21
2222.00689816148
  0
LINE
  8
_0-2_
  6
CONTINUOUS
 62
    3
 10
1334.5141195768044
 20
2222.00689816148
 11
1334.8124862729233
 21
2221.7912389364155
  0
LINE
  8
_0-2_
  6
CONTINUOUS
 62
    3
 10
1334.8124862729233
 20
2221.7912389364155
 11
1335.1160556488969
 21
2221.5829669491513
  0
LINE
  8
_0-2_
  6
CONTINUOUS
 62
    3
 10
1335.1160556488969
 20
2221.5829669491513
 11
1335.4246448458844
 21
2221.3822076549441
  0
LINE
  8
_0-2_
  6
CONTINUOUS
 62
    3
 10
1335.4246448458844
 20
2221.3822076549441
 11
1335.7380679812925
 21
2221.1890819836854
  0
LINE
  8
_0-2_
  6
CONTINUOUS
 62
    3
 10
1335.7380679812925
 20
2221.1890819836854
 11
1336.0561362607441
 21
2221.003706267059
  0
LINE
  8
_0-2_
  6
CONTINUOUS
 62
    3
 10
1336.0561362607441
 20
2221.003706267059
 11
1336.3786580918008
 21
2220.8261921684643
  0
LINE
  8
_0-2_
  6
CONTINUOUS
 62
    3
 10
1336.3786580918008
 20
2220.8261921684643
 11
1336.705439199372
 21
2220.6566466157569
  0
LINE
  8
_0-2_
  6
CONTINUOUS
 62
    3
 10
1336.705439199372
 20
2220.6566466157569
 11
1337.0362827427366
 21
2220.4951717368376
  0
LINE
  8
_0-2_
  6
CONTINUOUS
 62
    3
 10
1337.0362827427366
 20
2220.4951717368376
 11
1337.3709894341159
 21
2220.3418647981366
  0
LINE
  8
_0-2_
  6
CONTINUOUS
 62
    3
 10
1337.3709894341159
 20
2220.3418647981366
 11
1337.7093576587145
 21
2220.1968181460202
  0
LINE
  8
_0-2_
  6
CONTINUOUS
 62
    3
 10
1337.7093576587145
 20
2220.1968181460202
 11
1338.0511835961661
 21
2220.0601191511682
  0
LINE
  8
_0-2_
  6
CONTINUOUS
 62
    3
 10
1338.0511835961661
 20
2220.0601191511682
 11
1338.3962613433075
 21
2219.9318501559442
  0
LINE
  8
_0-2_
  6
CONTINUOUS
 62
    3
 10
1338.3962613433075
 20
2219.9318501559442
 11
1338.7443830382074
 21
2219.8120884247937
  0
LINE
  8
_0-2_
  6
CONTINUOUS
 62
    3
 10
1338.7443830382074
 20
2219.8120884247937
 11
1339.0953389853739
 21
2219.7009060977061
  0
LINE
  8
_0-2_
  6
CONTINUOUS
 62
    3
 10
1339.0953389853739
 20
2219.7009060977061
 11
1339.4489177820674
 21
2219.598370146758
  0
LINE
  8
_0-2_
  6
CONTINUOUS
 62
    3
 10
1339.4489177820674
 20
2219.598370146758
 11
1339.8049064456418
 21
2219.504542335771
  0
LINE
  8
_0-2_
  6
CONTINUOUS
 62
    3
 10
1339.8049064456418
 20
2219.504542335771
 11
1340.1630905418378
 21
2219.4194791831114
  0
LINE
  8
_0-2_
  6
CONTINUOUS
 62
    3
 10
1340.1630905418378
 20
2219.4194791831114
 11
1340.5232543139487
 21
2219.3432319276412
  0
LINE
  8
_0-2_
  6
CONTINUOUS
 62
    3
 10
1340.5232543139487
 20
2219.3432319276412
 11
1340.8851808127863
 21
2219.2758464978551
  0
LINE
  8
_0-2_
  6
CONTINUOUS
 62
    3
 10
1340.8851808127863
 20
2219.2758464978551
 11
1341.2486520273603
 21
2219.2173634842179
  0
LINE
  8
_0-2_
  6
CONTINUOUS
 62
    3
 10
1341.2486520273603
 20
2219.2173634842179
 11
1341.6134490162026
 21
2219.167818114709
  0
LINE
  8
_0-2_
  6
CONTINUOUS
 62
    3
 10
1341.6134490162026
 20
2219.167818114709
 11
1341.9793520392475
 21
2219.1272402336067
  0
LINE
  8
_0-2_
  6
CONTINUOUS
 62
    3
 10
1341.9793520392475
 20
2219.1272402336067
 11
1342.3461406901959
 21
2219.0956542835092
  0
LINE
  8
_0-2_
  6
CONTINUOUS
 62
    3
 10
1342.3461406901959
 20
2219.0956542835092
 11
1342.7135940292796
 21
2219.0730792906115
  0
LINE
  8
_0-2_
  6
CONTINUOUS
 62
    3
 10
1342.7135940292796
 20
2219.0730792906115
 11
1343.0814907163472
 21
2219.0595288532463
  0
LINE
  8
_0-2_
  6
CONTINUOUS
 62
    3
 10
1343.0814907163472
 20
2219.0595288532463
 11
1343.4496091441908
 21
2219.0550111336893
  0
LINE
  8
_0-2_
  6
CONTINUOUS
 62
    3
 10
1343.4496091441908
 20
2219.0550111336893
 11
1504.4496091441908
 21
2219.0550111336893
  0
LINE
  8
_0-2_
  6
CONTINUOUS
 62
    3
 10
1341.4496091441906
 20
2675.0550111336897
 11
1341.4496091441906
 21
2234.0550111336893
  0
LINE
  8
_0-2_
  6
CONTINUOUS
 62
    3
 10
1341.4496091441906
 20
2234.0550111336893
 11
1341.4502115067985
 21
2234.0059286766436
  0
LINE
  8
_0-2_
  6
CONTINUOUS
 62
    3
 10
1341.4502115067985
 20
2234.0059286766436
 11
1341.4520182317806
 21
2233.9568757850343
  0
LINE
  8
_0-2_
  6
CONTINUOUS
 62
    3
 10
1341.4520182317806
 20
2233.9568757850343
 11
1341.4550282308335
 21
2233.9078820064901
  0
LINE
  8
_0-2_
  6
CONTINUOUS
 62
    3
 10
1341.4550282308335
 20
2233.9078820064901
 11
1341.4592396908465
 21
2233.8589768530305
  0
LINE
  8
_0-2_
  6
CONTINUOUS
 62
    3
 10
1341.4592396908465
 20
2233.8589768530305
 11
1341.4646500749932
 21
2233.8101897832912
  0
LINE
  8
_0-2_
  6
CONTINUOUS
 62
    3
 10
1341.4646500749932
 20
2233.8101897832912
 11
1341.4712561242613
 21
2233.7615501847786
  0
LINE
  8
_0-2_
  6
CONTINUOUS
 62
    3
 10
1341.4712561242613
 20
2233.7615501847786
 11
1341.4790538594129
 21
2233.7130873561687
  0
LINE
  8
_0-2_
  6
CONTINUOUS
 62
    3
 10
1341.4790538594129
 20
2233.7130873561687
 11
1341.4880385833844
 21
2233.6648304896571
  0
LINE
  8
_0-2_
  6
CONTINUOUS
 62
    3
 10
1341.4880385833844
 20
2233.6648304896571
 11
1341.4982048841136
 21
2233.6168086533758
  0
LINE
  8
_0-2_
  6
CONTINUOUS
 62
    3
 10
1341.4982048841136
 20
2233.6168086533758
 11
1341.5095466378016
 21
2233.5690507738827
  0
LINE
  8
_0-2_
  6
CONTINUOUS
 62
    3
 10
1341.5095466378016
 20
2233.5690507738827
 11
1341.5220570125998
 21
2233.5215856187397
  0
LINE
  8
_0-2_
  6
CONTINUOUS
 62
    3
 10
1341.5220570125998
 20
2233.5215856187397
 11
1341.5357284727265
 21
2233.4744417791803
  0
LINE
  8
_0-2_
  6
CONTINUOUS
 62
    3
 10
1341.5357284727265
 20
2233.4744417791803
 11
1341.5505527830046
 21
2233.4276476528917
  0
LINE
  8
_0-2_
  6
CONTINUOUS
 62
    3
 10
1341.5505527830046
 20
2233.4276476528917
 11
1341.5665210138245
 21
2233.3812314269053
  0
LINE
  8
_0-2_
  6
CONTINUOUS
 62
    3
 10
1341.5665210138245
 20
2233.3812314269053
 11
1341.5836235465213
 21
2233.3352210606195
  0
LINE
  8
_0-2_
  6
CONTINUOUS
 62
    3
 10
1341.5836235465213
 20
2233.3352210606195
 11
1341.6018500791683
 21
2233.2896442689594
  0
LINE
  8
_0-2_
  6
CONTINUOUS
 62
    3
 10
1341.6018500791683
 20
2233.2896442689594
 11
1341.6211896327836
 21
2233.2445285056797
  0
LINE
  8
_0-2_
  6
CONTINUOUS
 62
    3
 10
1341.6211896327836
 20
2233.2445285056797
 11
1341.6416305579442
 21
2233.1999009468286
  0
LINE
  8
_0-2_
  6
CONTINUOUS
 62
    3
 10
1341.6416305579442
 20
2233.1999009468286
 11
1341.6631605417997
 21
2233.1557884743802
  0
LINE
  8
_0-2_
  6
CONTINUOUS
 62
    3
 10
1341.6631605417997
 20
2233.1557884743802
 11
1341.685766615494
 21
2233.1122176600375
  0
LINE
  8
_0-2_
  6
CONTINUOUS
 62
    3
 10
1341.685766615494
 20
2233.1122176600375
 11
1341.7094351619733
 21
2233.0692147492296
  0
LINE
  8
_0-2_
  6
CONTINUOUS
 62
    3
 10
1341.7094351619733
 20
2233.0692147492296
 11
1341.7341519241902
 21
2233.0268056453033
  0
LINE
  8
_0-2_
  6
CONTINUOUS
 62
    3
 10
1341.7341519241902
 20
2233.0268056453033
 11
1341.7599020136913
 21
2232.9850158939153
  0
LINE
  8
_0-2_
  6
CONTINUOUS
 62
    3
 10
1341.7599020136913
 20
2232.9850158939153
 11
1341.7866699195856
 21
2232.9438706676501
  0
LINE
  8
_0-2_
  6
CONTINUOUS
 62
    3
 10
1341.7866699195856
 20
2232.9438706676501
 11
1341.8144395178876
 21
2232.9033947508537
  0
LINE
  8
_0-2_
  6
CONTINUOUS
 62
    3
 10
1341.8144395178876
 20
2232.9033947508537
 11
1341.8431940812295
 21
2232.8636125247044
  0
LINE
  8
_0-2_
  6
CONTINUOUS
 62
    3
 10
1341.8431940812295
 20
2232.8636125247044
 11
1341.8729162889374
 21
2232.8245479525281
  0
LINE
  8
_0-2_
  6
CONTINUOUS
 62
    3
 10
1341.8729162889374
 20
2232.8245479525281
 11
1341.9035882374651
 21
2232.7862245653619
  0
LINE
  8
_0-2_
  6
CONTINUOUS
 62
    3
 10
1341.9035882374651
 20
2232.7862245653619
 11
1341.9351914511778
 21
2232.7486654477816
  0
LINE
  8
_0-2_
  6
CONTINUOUS
 62
    3
 10
1341.9351914511778
 20
2232.7486654477816
 11
1341.9677068934807
 21
2232.7118932239955
  0
LINE
  8
_0-2_
  6
CONTINUOUS
 62
    3
 10
1341.9677068934807
 20
2232.7118932239955
 11
1342.0011149782877
 21
2232.6759300442154
  0
LINE
  8
_0-2_
  6
CONTINUOUS
 62
    3
 10
1342.0011149782877
 20
2232.6759300442154
 11
1342.0353955818175
 21
2232.6407975713164
  0
LINE
  8
_0-2_
  6
CONTINUOUS
 62
    3
 10
1342.0353955818175
 20
2232.6407975713164
 11
1342.0705280547165
 21
2232.6065169677863
  0
LINE
  8
_0-2_
  6
CONTINUOUS
 62
    3
 10
1342.0705280547165
 20
2232.6065169677863
 11
1342.1064912344966
 21
2232.5731088829793
  0
LINE
  8
_0-2_
  6
CONTINUOUS
 62
    3
 10
1342.1064912344966
 20
2232.5731088829793
 11
1342.1432634582832
 21
2232.5405934406767
  0
LINE
  8
_0-2_
  6
CONTINUOUS
 62
    3
 10
1342.1432634582832
 20
2232.5405934406767
 11
1342.1808225758632
 21
2232.5089902269638
  0
LINE
  8
_0-2_
  6
CONTINUOUS
 62
    3
 10
1342.1808225758632
 20
2232.5089902269638
 11
1342.2191459630294
 21
2232.4783182784363
  0
LINE
  8
_0-2_
  6
CONTINUOUS
 62
    3
 10
1342.2191459630294
 20
2232.4783182784363
 11
1342.2582105352058
 21
2232.4485960707279
  0
LINE
  8
_0-2_
  6
CONTINUOUS
 62
    3
 10
1342.2582105352058
 20
2232.4485960707279
 11
1342.2979927613551
 21
2232.4198415073861
  0
LINE
  8
_0-2_
  6
CONTINUOUS
 62
    3
 10
1342.2979927613551
 20
2232.4198415073861
 11
1342.3384686781515
 21
2232.3920719090843
  0
LINE
  8
_0-2_
  6
CONTINUOUS
 62
    3
 10
1342.3384686781515
 20
2232.3920719090843
 11
1342.3796139044161
 21
2232.36530400319
  0
LINE
  8
_0-2_
  6
CONTINUOUS
 62
    3
 10
1342.3796139044161
 20
2232.36530400319
 11
1342.4214036558042
 21
2232.3395539136886
  0
LINE
  8
_0-2_
  6
CONTINUOUS
 62
    3
 10
1342.4214036558042
 20
2232.3395539136886
 11
1342.4638127597311
 21
2232.3148371514717
  0
LINE
  8
_0-2_
  6
CONTINUOUS
 62
    3
 10
1342.4638127597311
 20
2232.3148371514717
 11
1342.5068156705383
 21
2232.2911686049924
  0
LINE
  8
_0-2_
  6
CONTINUOUS
 62
    3
 10
1342.5068156705383
 20
2232.2911686049924
 11
1342.5503864848815
 21
2232.2685625312984
  0
LINE
  8
_0-2_
  6
CONTINUOUS
 62
    3
 10
1342.5503864848815
 20
2232.2685625312984
 11
1342.5944989573302
 21
2232.2470325474424
  0
LINE
  8
_0-2_
  6
CONTINUOUS
 62
    3
 10
1342.5944989573302
 20
2232.2470325474424
 11
1342.6391265161806
 21
2232.2265916222823
  0
LINE
  8
_0-2_
  6
CONTINUOUS
 62
    3
 10
1342.6391265161806
 20
2232.2265916222823
 11
1342.6842422794605
 21
2232.207252068667
  0
LINE
  8
_0-2_
  6
CONTINUOUS
 62
    3
 10
1342.6842422794605
 20
2232.207252068667
 11
1342.7298190711208
 21
2232.1890255360199
  0
LINE
  8
_0-2_
  6
CONTINUOUS
 62
    3
 10
1342.7298190711208
 20
2232.1890255360199
 11
1342.7758294374062
 21
2232.1719230033232
  0
LINE
  8
_0-2_
  6
CONTINUOUS
 62
    3
 10
1342.7758294374062
 20
2232.1719230033232
 11
1342.8222456633926
 21
2232.1559547725033
  0
LINE
  8
_0-2_
  6
CONTINUOUS
 62
    3
 10
1342.8222456633926
 20
2232.1559547725033
 11
1342.8690397896817
 21
2232.1411304622252
  0
LINE
  8
_0-2_
  6
CONTINUOUS
 62
    3
 10
1342.8690397896817
 20
2232.1411304622252
 11
1342.9161836292408
 21
2232.1274590020985
  0
LINE
  8
_0-2_
  6
CONTINUOUS
 62
    3
 10
1342.9161836292408
 20
2232.1274590020985
 11
1342.9636487843841
 21
2232.1149486273002
  0
LINE
  8
_0-2_
  6
CONTINUOUS
 62
    3
 10
1342.9636487843841
 20
2232.1149486273002
 11
1343.0114066638769
 21
2232.1036068736121
  0
LINE
  8
_0-2_
  6
CONTINUOUS
 62
    3
 10
1343.0114066638769
 20
2232.1036068736121
 11
1343.0594285001584
 21
2232.0934405728831
  0
LINE
  8
_0-2_
  6
CONTINUOUS
 62
    3
 10
1343.0594285001584
 20
2232.0934405728831
 11
1343.10768536667
 21
2232.0844558489116
  0
LINE
  8
_0-2_
  6
CONTINUOUS
 62
    3
 10
1343.10768536667
 20
2232.0844558489116
 11
1343.1561481952799
 21
2232.07665811376
  0
LINE
  8
_0-2_
  6
CONTINUOUS
 62
    3
 10
1343.1561481952799
 20
2232.07665811376
 11
1343.2047877937921
 21
2232.0700520644918
  0
LINE
  8
_0-2_
  6
CONTINUOUS
 62
    3
 10
1343.2047877937921
 20
2232.0700520644918
 11
1343.2535748635314
 21
2232.0646416803452
  0
LINE
  8
_0-2_
  6
CONTINUOUS
 62
    3
 10
1343.2535748635314
 20
2232.0646416803452
 11
1343.3024800169912
 21
2232.0604302203319
  0
LINE
  8
_0-2_
  6
CONTINUOUS
 62
    3
 10
1343.3024800169912
 20
2232.0604302203319
 11
1343.3514737955356
 21
2232.0574202212792
  0
LINE
  8
_0-2_
  6
CONTINUOUS
 62
    3
 10
1343.3514737955356
 20
2232.0574202212792
 11
1343.4005266871445
 21
2232.0556134962972
  0
LINE
  8
_0-2_
  6
CONTINUOUS
 62
    3
 10
1343.4005266871445
 20
2232.0556134962972
 11
1343.4496091441906
 21
2232.0550111336893
  0
LINE
  8
_0-2_
  6
CONTINUOUS
 62
    3
 10
1343.4496091441906
 20
2232.0550111336893
 11
1489.4496091441908
 21
2232.0550111336893
  0
LINE
  8
_0-2_
  6
CONTINUOUS
 62
    3
 10
1489.4496091441908
 20
2232.0550111336893
 11
1489.4496091441908
 21
2227.0550111336893
  0
LINE
  8
_0-2_
  6
CONTINUOUS
 62
    3
 10
1489.4496091441908
 20
2227.0550111336893
 11
1343.4496091441908
 21
2227.0550111336893
  0
LINE
  8
_0-2_
  6
CONTINUOUS
 62
    3
 10
1343.4496091441908
 20
2227.0550111336893
 11
1343.2778205445306
 21
2227.0571194028157
  0
LINE
  8
_0-2_
  6
CONTINUOUS
 62
    3
 10
1343.2778205445306
 20
2227.0571194028157
 11
1343.1061354238989
 21
2227.063442940253
  0
LINE
  8
_0-2_
  6
CONTINUOUS
 62
    3
 10
1343.1061354238989
 20
2227.063442940253
 11
1342.9346571989931
 21
2227.0739779369383
  0
LINE
  8
_0-2_
  6
CONTINUOUS
 62
    3
 10
1342.9346571989931
 20
2227.0739779369383
 11
1342.7634891618841
 21
2227.088718046984
  0
LINE
  8
_0-2_
  6
CONTINUOUS
 62
    3
 10
1342.7634891618841
 20
2227.088718046984
 11
1342.5927344177962
 21
2227.1076543914983
  0
LINE
  8
_0-2_
  6
CONTINUOUS
 62
    3
 10
1342.5927344177962
 20
2227.1076543914983
 11
1342.4224958230034
 21
2227.1307755639359
  0
LINE
  8
_0-2_
  6
CONTINUOUS
 62
    3
 10
1342.4224958230034
 20
2227.1307755639359
 11
1342.2528759228685
 21
2227.1580676369667
  0
LINE
  8
_0-2_
  6
CONTINUOUS
 62
    3
 10
1342.2528759228685
 20
2227.1580676369667
 11
1342.083976890078
 21
2227.1895141708665
  0
LINE
  8
_0-2_
  6
CONTINUOUS
 62
    3
 10
1342.083976890078
 20
2227.1895141708665
 11
1341.9159004630928
 21
2227.2250962234198
  0
LINE
  8
_0-2_
  6
CONTINUOUS
 62
    3
 10
1341.9159004630928
 20
2227.2250962234198
 11
1341.748747884868
 21
2227.2647923613276
  0
LINE
  8
_0-2_
  6
CONTINUOUS
 62
    3
 10
1341.748747884868
 20
2227.2647923613276
 11
1341.5826198418665
 21
2227.3085786731212
  0
LINE
  8
_0-2_
  6
CONTINUOUS
 62
    3
 10
1341.5826198418665
 20
2227.3085786731212
 11
1341.4176164034095
 21
2227.3564287835638
  0
LINE
  8
_0-2_
  6
CONTINUOUS
 62
    3
 10
1341.4176164034095
 20
2227.3564287835638
 11
1341.2538369613985
 21
2227.4083138695378
  0
LINE
  8
_0-2_
  6
CONTINUOUS
 62
    3
 10
1341.2538369613985
 20
2227.4083138695378
 11
1341.0913801704453
 21
2227.4642026774081
  0
LINE
  8
_0-2_
  6
CONTINUOUS
 62
    3
 10
1341.0913801704453
 20
2227.4642026774081
 11
1340.9303438884458
 21
2227.5240615418461
  0
LINE
  8
_0-2_
  6
CONTINUOUS
 62
    3
 10
1340.9303438884458
 20
2227.5240615418461
 11
1340.7708251176355
 21
2227.5878544061102
  0
LINE
  8
_0-2_
  6
CONTINUOUS
 62
    3
 10
1340.7708251176355
 20
2227.5878544061102
 11
1340.6129199461561
 21
2227.6555428437646
  0
LINE
  8
_0-2_
  6
CONTINUOUS
 62
    3
 10
1340.6129199461561
 20
2227.6555428437646
 11
1340.4567234901788
 21
2227.7270860818253
  0
LINE
  8
_0-2_
  6
CONTINUOUS
 62
    3
 10
1340.4567234901788
 20
2227.7270860818253
 11
1340.3023298366086
 21
2227.8024410253206
  0
LINE
  8
_0-2_
  6
CONTINUOUS
 62
    3
 10
1340.3023298366086
 20
2227.8024410253206
 11
1340.149831986409
 21
2227.8815622832508
  0
LINE
  8
_0-2_
  6
CONTINUOUS
 62
    3
 10
1340.149831986409
 20
2227.8815622832508
 11
1339.9993217985823
 21
2227.9644021959284
  0
LINE
  8
_0-2_
  6
CONTINUOUS
 62
    3
 10
1339.9993217985823
 20
2227.9644021959284
 11
1339.8508899348383
 21
2228.0509108636875
  0
LINE
  8
_0-2_
  6
CONTINUOUS
 62
    3
 10
1339.8508899348383
 20
2228.0509108636875
 11
1339.7046258049813
 21
2228.1410361769413
  0
LINE
  8
_0-2_
  6
CONTINUOUS
 62
    3
 10
1339.7046258049813
 20
2228.1410361769413
 11
1339.5606175130536
 21
2228.2347238475713
  0
LINE
  8
_0-2_
  6
CONTINUOUS
 62
    3
 10
1339.5606175130536
 20
2228.2347238475713
 11
1339.4189518042658
 21
2228.3319174416283
  0
LINE
  8
_0-2_
  6
CONTINUOUS
 62
    3
 10
1339.4189518042658
 20
2228.3319174416283
 11
1339.2797140127439
 21
2228.4325584133248
  0
LINE
  8
_0-2_
  6
CONTINUOUS
 62
    3
 10
1339.2797140127439
 20
2228.4325584133248
 11
1339.1429880101264
 21
2228.5365861403029
  0
LINE
  8
_0-2_
  6
CONTINUOUS
 62
    3
 10
1339.1429880101264
 20
2228.5365861403029
 11
1339.0088561550454
 21
2228.6439379601502
  0
LINE
  8
_0-2_
  6
CONTINUOUS
 62
    3
 10
1339.0088561550454
 20
2228.6439379601502
 11
1338.8773992435144
 21
2228.7545492081435
  0
LINE
  8
_0-2_
  6
CONTINUOUS
 62
    3
 10
1338.8773992435144
 20
2228.7545492081435
 11
1338.7486964602617
 21
2228.8683532562045
  0
LINE
  8
_0-2_
  6
CONTINUOUS
 62
    3
 10
1338.7486964602617
 20
2228.8683532562045
 11
1338.6228253310312
 21
2228.9852815530289
  0
LINE
  8
_0-2_
  6
CONTINUOUS
 62
    3
 10
1338.6228253310312
 20
2228.9852815530289
 11
1338.4998616758849
 21
2229.1052636653835
  0
LINE
  8
_0-2_
  6
CONTINUOUS
 62
    3
 10
1338.4998616758849
 20
2229.1052636653835
 11
1338.3798795635307
 21
2229.2282273205301
  0
LINE
  8
_0-2_
  6
CONTINUOUS
 62
    3
 10
1338.3798795635307
 20
2229.2282273205301
 11
1338.2629512667061
 21
2229.3540984497604
  0
LINE
  8
_0-2_
  6
CONTINUOUS
 62
    3
 10
1338.2629512667061
 20
2229.3540984497604
 11
1338.1491472186453
 21
2229.4828012330127
  0
LINE
  8
_0-2_
  6
CONTINUOUS
 62
    3
 10
1338.1491472186453
 20
2229.4828012330127
 11
1338.0385359706515
 21
2229.6142581445438
  0
LINE
  8
_0-2_
  6
CONTINUOUS
 62
    3
 10
1338.0385359706515
 20
2229.6142581445438
 11
1337.9311841508045
 21
2229.748389999625
  0
LINE
  8
_0-2_
  6
CONTINUOUS
 62
    3
 10
1337.9311841508045
 20
2229.748389999625
 11
1337.8271564238262
 21
2229.8851160022423
  0
LINE
  8
_0-2_
  6
CONTINUOUS
 62
    3
 10
1337.8271564238262
 20
2229.8851160022423
 11
1337.7265154521297
 21
2230.0243537937645
  0
LINE
  8
_0-2_
  6
CONTINUOUS
 62
    3
 10
1337.7265154521297
 20
2230.0243537937645
 11
1337.6293218580731
 21
2230.166019502552
  0
LINE
  8
_0-2_
  6
CONTINUOUS
 62
    3
 10
1337.6293218580731
 20
2230.166019502552
 11
1337.5356341874428
 21
2230.3100277944795
  0
LINE
  8
_0-2_
  6
CONTINUOUS
 62
    3
 10
1337.5356341874428
 20
2230.3100277944795
 11
1337.4455088741888
 21
2230.4562919243367
  0
LINE
  8
_0-2_
  6
CONTINUOUS
 62
    3
 10
1337.4455088741888
 20
2230.4562919243367
 11
1337.3590002064298
 21
2230.6047237880807
  0
LINE
  8
_0-2_
  6
CONTINUOUS
 62
    3
 10
1337.3590002064298
 20
2230.6047237880807
 11
1337.2761602937524
 21
2230.7552339759072
  0
LINE
  8
_0-2_
  6
CONTINUOUS
 62
    3
 10
1337.2761602937524
 20
2230.7552339759072
 11
1337.1970390358224
 21
2230.907731826107
  0
LINE
  8
_0-2_
  6
CONTINUOUS
 62
    3
 10
1337.1970390358224
 20
2230.907731826107
 11
1337.1216840923266
 21
2231.0621254796774
  0
LINE
  8
_0-2_
  6
CONTINUOUS
 62
    3
 10
1337.1216840923266
 20
2231.0621254796774
 11
1337.0501408542659
 21
2231.2183219356543
  0
LINE
  8
_0-2_
  6
CONTINUOUS
 62
    3
 10
1337.0501408542659
 20
2231.2183219356543
 11
1336.9824524166117
 21
2231.3762271071337
  0
LINE
  8
_0-2_
  6
CONTINUOUS
 62
    3
 10
1336.9824524166117
 20
2231.3762271071337
 11
1336.9186595523474
 21
2231.5357458779445
  0
LINE
  8
_0-2_
  6
CONTINUOUS
 62
    3
 10
1336.9186595523474
 20
2231.5357458779445
 11
1336.8588006879095
 21
2231.6967821599437
  0
LINE
  8
_0-2_
  6
CONTINUOUS
 62
    3
 10
1336.8588006879095
 20
2231.6967821599437
 11
1336.8029118800393
 21
2231.8592389508972
  0
LINE
  8
_0-2_
  6
CONTINUOUS
 62
    3
 10
1336.8029118800393
 20
2231.8592389508972
 11
1336.7510267940652
 21
2232.0230183929079
  0
LINE
  8
_0-2_
  6
CONTINUOUS
 62
    3
 10
1336.7510267940652
 20
2232.0230183929079
 11
1336.7031766836226
 21
2232.1880218313649
  0
LINE
  8
_0-2_
  6
CONTINUOUS
 62
    3
 10
1336.7031766836226
 20
2232.1880218313649
 11
1336.659390371829
 21
2232.3541498743662
  0
LINE
  8
_0-2_
  6
CONTINUOUS
 62
    3
 10
1336.659390371829
 20
2232.3541498743662
 11
1336.6196942339209
 21
2232.521302452591
  0
LINE
  8
_0-2_
  6
CONTINUOUS
 62
    3
 10
1336.6196942339209
 20
2232.521302452591
 11
1336.5841121813678
 21
2232.6893788795765
  0
LINE
  8
_0-2_
  6
CONTINUOUS
 62
    3
 10
1336.5841121813678
 20
2232.6893788795765
 11
1336.5526656474681
 21
2232.8582779123672
  0
LINE
  8
_0-2_
  6
CONTINUOUS
 62
    3
 10
1336.5526656474681
 20
2232.8582779123672
 11
1336.5253735744373
 21
2233.0278978125016
  0
LINE
  8
_0-2_
  6
CONTINUOUS
 62
    3
 10
1336.5253735744373
 20
2233.0278978125016
 11
1336.5022524019996
 21
2233.1981364072949
  0
LINE
  8
_0-2_
  6
CONTINUOUS
 62
    3
 10
1336.5022524019996
 20
2233.1981364072949
 11
1336.4833160574854
 21
2233.3688911513823
  0
LINE
  8
_0-2_
  6
CONTINUOUS
 62
    3
 10
1336.4833160574854
 20
2233.3688911513823
 11
1336.4685759474398
 21
2233.5400591884918
  0
LINE
  8
_0-2_
  6
CONTINUOUS
 62
    3
 10
1336.4685759474398
 20
2233.5400591884918
 11
1336.4580409507544
 21
2233.7115374133973
  0
LINE
  8
_0-2_
  6
CONTINUOUS
 62
    3
 10
1336.4580409507544
 20
2233.7115374133973
 11
1336.4517174133173
 21
2233.8832225340288
  0
LINE
  8
_0-2_
  6
CONTINUOUS
 62
    3
 10
1336.4517174133173
 20
2233.8832225340288
 11
1336.4496091441906
 21
2234.0550111336893
  0
LINE
  8
_0-2_
  6
CONTINUOUS
 62
    3
 10
1336.4496091441906
 20
2234.0550111336893
 11
1336.4496091441906
 21
2675.0550111336897
  0
LINE
  8
_0-2_
  6
CONTINUOUS
 62
    3
 10
1336.4496091441906
 20
2675.0550111336897
 11
1341.4496091441906
 21
2675.0550111336897
  0
LINE
  8
_0-2_
  6
CONTINUOUS
 62
    3
 10
1232.4496091441906
 20
2659.3066253587153
 11
1323.4496091441906
 21
2659.3066253587153
  0
LINE
  8
_0-2_
  6
CONTINUOUS
 62
    3
 10
1232.4496091441906
 20
2240.0550111336893
 11
1232.4496091441906
 21
2700.6199711726722
  0
LINE
  8
_0-2_
  6
CONTINUOUS
 62
    3
 10
1777.4496091441906
 20
2240.0550111336893
 11
1777.4496091441906
 21
2700.6199711726722
  0
LINE
  8
_0-3_
  6
CONTINUOUS
 62
    7
 10
4529.9317892696099
 20
2597.5318186057625
 11
4529.9317892696099
 21
2847.0810676978358
  0
LINE
  8
_0-3_
  6
CONTINUOUS
 62
    7
 10
4577.9317892696099
 20
2597.5318186057625
 11
4577.9317892696099
 21
2847.0810676978358
  0
LINE
  8
_0-3_
  6
CONTINUOUS
 62
    7
 10
4529.9317892696099
 20
2847.0810676978358
 11
4577.9317892696099
 21
2847.0810676978358
  0
CIRCLE
  8
_0-3_
  6
CONTINUOUS
 62
    7
 10
4529.9317892696099
 20
2847.0810676978358
 40
5.9996337890625
  0
CIRCLE
  8
_0-3_
  6
CONTINUOUS
 62
    7
 10
4577.9317892696099
 20
2847.0810676978358
 40
5.9996337890625
  0
TEXT
  8
_0-3_
 62
    7
 10
4514.4923361446099
 20
2855.0810676680335
 40
95.25
 41
0.828125
 50
0
  1
48
  0
LINE
  8
_0-2_
  6
CONTINUOUS
 62
    3
 10
5324.3663448253628
 20
1751.0794580313295
 11
4470.2633609687291
 21
1751.0794580313295
  0
LINE
  8
_0-2_
  6
CONTINUOUS
 62
    3
 10
5132.0239742970607
 20
2527.201499546964
 11
5132.0239742970607
 21
1893.6025182705139
  0
LINE
  8
_0-2_
  6
CONTINUOUS
 62
    3
 10
4615.9317892696099
 20
2527.201499546964
 11
5147.9317892696099
 21
2527.201499546964
  0
LINE
  8
_0-3_
  6
CONTINUOUS
 62
    7
 10
4510.8409002078306
 20
2567.0794580313295
 11
4410.8409001072487
 21
2567.0794580313295
  0
LINE
  8
_0-3_
  6
CONTINUOUS
 62
    7
 10
4510.8409002078306
 20
2502.0794580313759
 11
4410.8409001072487
 21
2502.0794580313759
  0
LINE
  8
_0-3_
  6
CONTINUOUS
 62
    7
 10
4410.8409001072487
 20
2567.0794580313295
 11
4410.8409001072487
 21
2502.0794580313759
  0
CIRCLE
  8
_0-3_
  6
CONTINUOUS
 62
    7
 10
4410.8409001072487
 20
2567.0794580313295
 40
5.9996337890625
  0
CIRCLE
  8
_0-3_
  6
CONTINUOUS
 62
    7
 10
4410.8409001072487
 20
2502.0794580313759
 40
5.9996337890625
  0
TEXT
  8
_0-3_
 62
    7
 10
4402.840900137051
 20
2495.1400049063527
 40
95.25
 41
0.828125
 50
90
  1
65
  0
LINE
  8
_0-3_
  6
CONTINUOUS
 62
    7
 10
4510.8409002078306
 20
2502.0794580313759
 11
4410.8409001072487
 21
2502.0794580313759
  0
LINE
  8
_0-3_
  6
CONTINUOUS
 62
    7
 10
4510.8409002078306
 20
1917.0794580313759
 11
4410.8409001072487
 21
1917.0794580313759
  0
LINE
  8
_0-3_
  6
CONTINUOUS
 62
    7
 10
4410.8409001072487
 20
2502.0794580313759
 11
4410.8409001072487
 21
1917.0794580313759
  0
CIRCLE
  8
_0-3_
  6
CONTINUOUS
 62
    7
 10
4410.8409001072487
 20
2502.0794580313759
 40
5.9996337890625
  0
CIRCLE
  8
_0-3_
  6
CONTINUOUS
 62
    7
 10
4410.8409001072487
 20
1917.0794580313759
 40
5.9996337890625
  0
TEXT
  8
_0-3_
 62
    7
 10
4402.840900137051
 20
2150.4202783438759
 40
95.25
 41
0.828125
 50
90
  1
585
  0
LINE
  8
_0-3_
  6
CONTINUOUS
 62
    7
 10
4529.9317892696099
 20
2597.5318186057625
 11
4529.9317892696099
 21
2722.3064431517992
  0
LINE
  8
_0-3_
  6
CONTINUOUS
 62
    7
 10
4545.9317892696099
 20
2597.5318186057625
 11
4545.9317892696099
 21
2722.3064431517992
  0
LINE
  8
_0-3_
  6
CONTINUOUS
 62
    7
 10
4529.9317892696099
 20
2722.3064431517992
 11
4434.8694427058481
 21
2722.3064431517992
  0
LINE
  8
_0-3_
  6
CONTINUOUS
 62
    7
 10
4529.9317892696099
 20
2722.3064431517992
 11
4545.9317892696099
 21
2722.3064431517992
  0
CIRCLE
  8
_0-3_
  6
CONTINUOUS
 62
    7
 10
4529.9317892696099
 20
2722.3064431517992
 40
5.9996337890625
  0
CIRCLE
  8
_0-3_
  6
CONTINUOUS
 62
    7
 10
4545.9317892696099
 20
2722.3064431517992
 40
5.9996337890625
  0
TEXT
  8
_0-3_
 62
    7
 10
4434.8694427058481
 20
2730.3064431219968
 40
95.25
 41
0.828125
 50
0
  1
16
  0
LINE
  8
_0-2_
  6
CONTINUOUS
 62
    3
 10
3169.4927372040916
 20
1942.0505786198769
 11
3650.7716907516724
 21
1942.0505786198769
  0
LINE
  8
_0-2_
  6
CONTINUOUS
 62
    3
 10
3169.4927372040916
 20
1942.0505786198769
 11
3169.4927372040916
 21
2472.0505786198769
  0
LINE
  8
_0-2_
  6
CONTINUOUS
 62
    3
 10
3650.7716907516724
 20
1942.0505786198769
 11
3650.7716907516724
 21
2472.0505786198769
  0
LINE
  8
_0-2_
  6
CONTINUOUS
 62
    3
 10
3169.4927372040916
 20
2472.0505786198769
 11
3650.7716907516724
 21
2472.0505786198769
  0
CIRCLE
  8
_0-2_
  6
CONTINUOUS
 62
    3
 10
3409.9716907516727
 20
1878.2005786198761
 40
13.608592268844859
  0
CIRCLE
  8
_0-2_
  6
CONTINUOUS
 62
    3
 10
3409.9716907516727
 20
1878.2005786198761
 40
10.768448384227327
  0
LINE
  8
_0-2_
  6
CONTINUOUS
 62
    3
 10
3403.9716907516727
 20
1875.9005786198759
 11
3415.9716907516722
 21
1875.9005786198759
  0
LINE
  8
_0-2_
  6
CONTINUOUS
 62
    3
 10
3403.9716907516727
 20
1875.9005786198759
 11
3403.9716907516727
 21
1880.500578619876
  0
LINE
  8
_0-2_
  6
CONTINUOUS
 62
    3
 10
3415.9716907516722
 20
1875.9005786198759
 11
3415.9716907516722
 21
1880.500578619876
  0
LINE
  8
_0-2_
  6
CONTINUOUS
 62
    3
 10
3403.9716907516727
 20
1880.500578619876
 11
3415.9716907516722
 21
1880.500578619876
  0
POINT
  8
_0-0_
 62
    7
 10
3407.7900447968968
 20
1757.0794580313295
  0
ARC
  8
_0-0_
  6
CONTINUOUS
 62
    4
 10
3137.8063137057388
 20
1753.5794580313295
 40
2.5
 50
270
 51
90
  0
LINE
  8
_0-0_
  6
CONTINUOUS
 62
    4
 10
3131.3063137057379
 20
1757.0794580313295
 11
3131.3063137057379
 21
1756.0794580313313
  0
LINE
  8
_0-0_
  6
CONTINUOUS
 62
    4
 10
3121.3063137057397
 20
1757.0794580313295
 11
3121.3063137057397
 21
1756.0794580313313
  0
ARC
  8
_0-0_
  6
CONTINUOUS
 62
    4
 10
3114.8063137057379
 20
1753.5794580313295
 40
2.5
 50
90
 51
270
  0
LINE
  8
_0-0_
  6
CONTINUOUS
 62
    4
 10
3137.8063137057388
 20
1756.0794580313313
 11
3114.8063137057379
 21
1756.0794580313313
  0
LINE
  8
_0-0_
  6
CONTINUOUS
 62
    4
 10
3137.8063137057388
 20
1751.0794580313313
 11
3114.8063137057379
 21
1751.0794580313313
  0
LINE
  8
_0-0_
  6
CONTINUOUS
 62
    4
 10
3675.33814394917
 20
1756.0794580313313
 11
3698.33814394917
 21
1756.0794580313313
  0
LINE
  8
_0-0_
  6
CONTINUOUS
 62
    4
 10
3675.33814394917
 20
1751.0794580313313
 11
3698.33814394917
 21
1751.0794580313313
  0
LINE
  8
_0-0_
  6
CONTINUOUS
 62
    4
 10
3681.8381439491691
 20
1757.0794580313295
 11
3681.8381439491691
 21
1756.0794580313313
  0
ARC
  8
_0-0_
  6
CONTINUOUS
 62
    4
 10
3675.33814394917
 20
1753.5794580313295
 40
2.5
 50
90
 51
270
  0
ARC
  8
_0-0_
  6
CONTINUOUS
 62
    4
 10
3698.33814394917
 20
1753.5794580313295
 40
2.5
 50
270
 51
90
  0
LINE
  8
_0-0_
  6
CONTINUOUS
 62
    4
 10
3691.8381439491704
 20
1757.0794580313295
 11
3691.8381439491704
 21
1756.0794580313313
  0
LINE
  8
_0-0_
  6
CONTINUOUS
 62
    4
 10
4531.4317892696099
 20
2502.0794580313759
 11
4544.4317892696099
 21
2502.0794580313759
  0
LINE
  8
_0-0_
  6
CONTINUOUS
 62
    4
 10
4545.9317892696099
 20
2500.5794580313759
 11
4545.9317892696099
 21
1918.5794580313759
  0
LINE
  8
_0-0_
  6
CONTINUOUS
 62
    4
 10
4544.4317892696099
 20
1917.0794580313759
 11
4531.4317892696099
 21
1917.0794580313759
  0
LINE
  8
_0-0_
  6
CONTINUOUS
 62
    4
 10
4529.9317892696099
 20
1918.5794580313759
 11
4529.9317892696099
 21
2500.5794580313759
  0
LINE
  8
_0-0_
  6
CONTINUOUS
 62
    4
 10
4545.9317892696099
 20
2467.0794580313759
 11
4577.9317892696099
 21
2467.0794580313759
  0
LINE
  8
_0-0_
  6
CONTINUOUS
 62
    4
 10
4577.9317892696099
 20
2467.0794580313759
 11
4577.9317892696099
 21
2447.0060692997408
  0
LINE
  8
_0-0_
  6
CONTINUOUS
 62
    4
 10
4577.9317892696099
 20
2447.0060692997408
 11
4545.9317892696099
 21
2447.0060692997408
  0
LINE
  8
_0-0_
  6
CONTINUOUS
 62
    4
 10
4545.9317892696099
 20
2447.0060692997408
 11
4545.9317892696099
 21
2467.0794580313759
  0
LINE
  8
_0-0_
  6
CONTINUOUS
 62
    4
 10
4545.9317892696099
 20
1982.0060692997411
 11
4577.9317892696099
 21
1982.0060692997411
  0
LINE
  8
_0-0_
  6
CONTINUOUS
 62
    4
 10
4577.9317892696099
 20
1982.0060692997411
 11
4577.9317892696099
 21
1961.9326805681062
  0
LINE
  8
_0-0_
  6
CONTINUOUS
 62
    4
 10
4577.9317892696099
 20
1961.9326805681062
 11
4545.9317892696099
 21
1961.9326805681062
  0
LINE
  8
_0-0_
  6
CONTINUOUS
 62
    4
 10
4545.9317892696099
 20
1961.9326805681062
 11
4545.9317892696099
 21
1982.0060692997411
  0
LINE
  8
_0-0_
  6
CONTINUOUS
 62
    4
 10
4529.9317892696099
 20
2500.5794580313759
 11
4545.9317892696099
 21
2500.5794580313759
  0
LINE
  8
_0-0_
  6
CONTINUOUS
 62
    4
 10
4545.9317892696099
 20
2500.5794580313759
 11
4545.9317892696099
 21
1918.5794580313759
  0
LINE
  8
_0-0_
  6
CONTINUOUS
 62
    4
 10
4545.9317892696099
 20
1918.5794580313759
 11
4529.9317892696099
 21
1918.5794580313759
  0
LINE
  8
_0-0_
  6
CONTINUOUS
 62
    4
 10
4529.9317892696099
 20
1918.5794580313759
 11
4529.9317892696099
 21
2500.5794580313759
  0
LINE
  8
_0-0_
  6
CONTINUOUS
 62
    4
 10
4529.9317892696099
 20
1918.5794580313759
 11
4531.4317892696099
 21
1917.0794580313759
  0
LINE
  8
_0-0_
  6
CONTINUOUS
 62
    4
 10
4545.9317892696099
 20
1918.5794580313759
 11
4544.4317892696099
 21
1917.0794580313759
  0
LINE
  8
_0-0_
  6
CONTINUOUS
 62
    4
 10
4529.9317892696099
 20
2500.5794580313759
 11
4531.4317892696099
 21
2502.0794580313759
  0
LINE
  8
_0-0_
  6
CONTINUOUS
 62
    4
 10
4545.9317892696099
 20
2500.5794580313759
 11
4544.4317892696099
 21
2502.0794580313759
  0
LINE
  8
_0-0_
  6
CONTINUOUS
 62
    4
 10
3109.2900447968968
 20
2464.0794580313759
 11
3137.4186759875729
 21
2464.0794580313759
  0
LINE
  8
_0-0_
  6
CONTINUOUS
 62
    4
 10
3137.4186759875729
 20
2464.0794580313759
 11
3137.4186759875729
 21
2444.0060692997413
  0
LINE
  8
_0-0_
  6
CONTINUOUS
 62
    4
 10
3137.4186759875729
 20
2444.0060692997413
 11
3109.2900447968968
 21
2444.0060692997413
  0
LINE
  8
_0-0_
  6
CONTINUOUS
 62
    4
 10
3109.2900447968968
 20
2444.0060692997413
 11
3109.2900447968968
 21
2464.0794580313759
  0
LINE
  8
_0-0_
  6
CONTINUOUS
 62
    4
 10
3109.2900447968968
 20
1982.0060692997411
 11
3137.4186759875729
 21
1982.0060692997411
  0
LINE
  8
_0-0_
  6
CONTINUOUS
 62
    4
 10
3137.4186759875729
 20
1982.0060692997411
 11
3137.4186759875729
 21
1961.9326805681062
  0
LINE
  8
_0-0_
  6
CONTINUOUS
 62
    4
 10
3137.4186759875729
 20
1961.9326805681062
 11
3109.2900447968968
 21
1961.9326805681062
  0
LINE
  8
_0-0_
  6
CONTINUOUS
 62
    4
 10
3109.2900447968968
 20
1961.9326805681062
 11
3109.2900447968968
 21
1982.0060692997411
  0
LINE
  8
_0-0_
  6
CONTINUOUS
 62
    4
 10
3151.9186759875729
 20
2499.0794580313759
 11
3138.9186759875729
 21
2499.0794580313759
  0
LINE
  8
_0-0_
  6
CONTINUOUS
 62
    4
 10
3137.4186759875729
 20
2497.5794580313759
 11
3137.4186759875729
 21
1918.5794580313759
  0
LINE
  8
_0-0_
  6
CONTINUOUS
 62
    4
 10
3138.9186759875724
 20
1917.0794580313759
 11
3151.9186759875724
 21
1917.0794580313759
  0
LINE
  8
_0-0_
  6
CONTINUOUS
 62
    4
 10
3153.4186759875729
 20
1918.5794580313759
 11
3153.4186759875729
 21
2497.5794580313759
  0
LINE
  8
_0-0_
  6
CONTINUOUS
 62
    4
 10
3137.4186759875729
 20
2497.5794580313759
 11
3153.4186759875729
 21
2497.5794580313759
  0
LINE
  8
_0-0_
  6
CONTINUOUS
 62
    4
 10
3153.4186759875729
 20
2497.5794580313759
 11
3153.4186759875729
 21
1918.5794580313759
  0
LINE
  8
_0-0_
  6
CONTINUOUS
 62
    4
 10
3153.4186759875729
 20
1918.5794580313759
 11
3137.4186759875729
 21
1918.5794580313759
  0
LINE
  8
_0-0_
  6
CONTINUOUS
 62
    4
 10
3137.4186759875729
 20
1918.5794580313759
 11
3137.4186759875729
 21
2497.5794580313759
  0
LINE
  8
_0-0_
  6
CONTINUOUS
 62
    4
 10
3153.4186759875729
 20
1918.5794580313759
 11
3151.9186759875729
 21
1917.0794580313759
  0
LINE
  8
_0-0_
  6
CONTINUOUS
 62
    4
 10
3137.4186759875729
 20
1918.5794580313759
 11
3138.9186759875729
 21
1917.0794580313759
  0
LINE
  8
_0-0_
  6
CONTINUOUS
 62
    4
 10
3153.4186759875729
 20
2497.5794580313759
 11
3151.9186759875729
 21
2499.0794580313759
  0
LINE
  8
_0-0_
  6
CONTINUOUS
 62
    4
 10
3137.4186759875729
 20
2497.5794580313759
 11
3138.9186759875729
 21
2499.0794580313759
  0
LINE
  8
_0-2_
  6
CONTINUOUS
 62
    3
 10
4007.5166336172379
 20
1751.0794580313295
 11
2593.9302111047045
 21
1751.0794580313295
  0
LINE
  8
_0-2_
  6
CONTINUOUS
 62
    3
 10
1668.4496091441906
 20
2675.0550111336897
 11
1341.4496091441906
 21
2675.0550111336897
  0
LINE
  8
_0-2_
  6
CONTINUOUS
 62
    3
 10
3110.7900447968968
 20
1851.0794580313313
 11
3704.7900447968968
 21
1851.0794580313313
  0
LINE
  8
_0-2_
  6
CONTINUOUS
 62
    3
 10
3110.7900447968968
 20
1851.0794580313313
 11
3110.7900447968968
 21
2567.0794580313313
  0
LINE
  8
_0-2_
  6
CONTINUOUS
 62
    3
 10
3704.7900447968968
 20
1851.0794580313313
 11
3704.7900447968968
 21
2567.0794580313313
  0
LINE
  8
_0-2_
  6
CONTINUOUS
 62
    3
 10
3110.7900447968968
 20
2567.0794580313313
 11
3704.7900447968968
 21
2567.0794580313313
  0
TEXT
  8
_0-0_
 62
    7
 10
4717.1330322906706
 20
289.67444444444453
 40
105.83333333333336
 41
0.8132771399286056
 50
0
  1
型式：UWKes1752 GrandCru
  0
TEXT
  8
_0-0_
 62
    7
 10
4945.0622301451358
 20
489.67444444444453
 40
105.83333333333336
 41
0.870898381868998
 50
0
  1
LIEBHERR
  0
TEXT
  8
_0-0_
 62
    7
 10
4945.0622301451358
 20
189.67444444444453
 40
105.83333333333336
 41
0.7243489492507209
 50
0
  1
インタックSPS株式会社
  0
TEXT
  8
_0-0_
 62
    7
 10
5134.8538968118019
 20
389.67444444444453
 40
105.83333333333336
 41
0.7000000508626301
 50
0
  1
外形寸法図
  0
LINE
  8
_0-0_
  6
CONTINUOUS
 62
    3
 10
4945.0622301451358
 20
390.44388888888903
 11
5695.0622301451358
 21
390.44388888888903
  0
LINE
  8
_0-0_
  6
CONTINUOUS
 62
    3
 10
4945.0622301451358
 20
390.44388888888903
 11
4945.0622301451358
 21
495.44388888888903
  0
LINE
  8
_0-0_
  6
CONTINUOUS
 62
    3
 10
5695.0622301451358
 20
390.44388888888903
 11
5695.0622301451358
 21
495.44388888888903
  0
LINE
  8
_0-0_
  6
CONTINUOUS
 62
    3
 10
4945.0622301451358
 20
495.44388888888903
 11
5695.0622301451358
 21
495.44388888888903
  0
TEXT
  8
_0-1_
 62
    7
 10
1524.8608227110842
 20
3032.683666826124
 40
63.5
 41
0.6666667373092085
 50
0
  1
平面図
  0
TEXT
  8
_0-1_
 62
    7
 10
3324.2900380681922
 20
3032.683666826124
 40
63.5
 41
0.6666667373092085
 50
0
  1
正面図
  0
TEXT
  8
_0-1_
 62
    7
 10
4812.4329292235579
 20
3028.6836667963444
 40
63.5
 41
0.6666667373092085
 50
0
  1
側面図
  0
TEXT
  8
_0-1_
 62
    7
 10
5541.7596349800951
 20
3946.1199999999999
 40
63.5
 41
0.8198242717319065
 50
0
  1
単位：mm
  0
LINE
  8
_0-0_
  6
CONTINUOUS
 62
    4
 10
1215.4496091441924
 20
2155.3338905451428
 11
1215.4496091441924
 21
2165.3338905451428
  0
ARC
  8
_0-0_
  6
CONTINUOUS
 62
    4
 10
1207.4496091441858
 20
2182.3338905451437
 40
1
 50
90
 51
180
  0
ARC
  8
_0-0_
  6
CONTINUOUS
 62
    4
 10
1214.449609144184
 20
2179.8145153926298
 40
0.9999999999997513
 50
308.65980825409008
 51
0
  0
LINE
  8
_0-0_
  6
CONTINUOUS
 62
    3
 10
1225.4496091441924
 20
2145.3338905451428
 11
1215.4496091441924
 21
2155.3338905451428
  0
LINE
  8
_0-0_
  6
CONTINUOUS
 62
    4
 10
1212.9496091441906
 20
2154.2457503270334
 11
1212.949609144184
 21
2177.3338905451437
  0
LINE
  8
_0-0_
  6
CONTINUOUS
 62
    4
 10
1206.4496091441906
 20
2114.9918187404592
 11
1206.4496091441838
 21
2182.3338905451437
  0
LINE
  8
_0-0_
  6
CONTINUOUS
 62
    4
 10
1215.4496091441861
 20
2183.3338905451419
 11
1207.4496091441843
 21
2183.3338905451437
  0
LINE
  8
_0-0_
  6
CONTINUOUS
 62
    4
 10
1215.0743041917383
 20
2179.033646583187
 11
1212.949609144184
 21
2177.3338905451437
  0
LINE
  8
_0-0_
  6
CONTINUOUS
 62
    4
 10
1215.4496091441822
 20
2179.8145153926298
 11
1215.4496091441861
 21
2183.3338905451419
  0
LINE
  8
_0-0_
  6
CONTINUOUS
 62
    4
 10
1259.9496091441943
 20
2116.3338905451428
 11
1261.9496091441943
 21
2118.3338905451428
  0
LINE
  8
_0-0_
  6
CONTINUOUS
 62
    4
 10
1261.9496091441943
 20
2118.3338905451428
 11
1285.9496091441943
 21
2118.3338905451428
  0
LINE
  8
_0-0_
  6
CONTINUOUS
 62
    4
 10
1285.9496091441943
 20
2118.3338905451428
 11
1287.9496091441943
 21
2116.3338905451428
  0
LINE
  8
_0-0_
  6
CONTINUOUS
 62
    4
 10
1287.9496091441943
 20
2116.3338905451428
 11
1287.9496091441943
 21
2099.3338905451428
  0
LINE
  8
_0-0_
  6
CONTINUOUS
 62
    4
 10
1287.9496091441943
 20
2099.3338905451428
 11
1285.9496091441943
 21
2097.3338905451428
  0
LINE
  8
_0-0_
  6
CONTINUOUS
 62
    4
 10
1285.9496091441943
 20
2097.3338905451428
 11
1261.9496091441943
 21
2097.3338905451428
  0
LINE
  8
_0-0_
  6
CONTINUOUS
 62
    4
 10
1261.9496091441943
 20
2097.3338905451428
 11
1259.9496091441943
 21
2099.3338905451428
  0
LINE
  8
_0-0_
  6
CONTINUOUS
 62
    4
 10
1259.9496091441943
 20
2099.3338905451428
 11
1259.9496091441943
 21
2116.3338905451428
  0
LINE
  8
_0-0_
  6
CONTINUOUS
 62
    4
 10
1234.4496091441906
 20
2120.111021181574
 11
1234.4496091441906
 21
2145.3338905451428
  0
LINE
  8
_0-0_
  6
CONTINUOUS
 62
    4
 10
1259.9496091441943
 20
2101.5567898979152
 11
1219.884637986735
 21
2101.5567898979152
  0
LINE
  8
_0-0_
  6
CONTINUOUS
 62
    4
 10
1259.9496091441943
 20
2114.1109911923704
 11
1240.4496391333937
 21
2114.1109911923704
  0
LINE
  8
_0-0_
  6
CONTINUOUS
 62
    3
 10
1206.4496091441906
 20
2114.9918187404592
 11
1219.884637986735
 21
2101.5567898979152
  0
LINE
  8
_0-0_
  6
CONTINUOUS
 62
    3
 10
1234.4496091441906
 20
2120.111021181574
 11
1240.4496391333937
 21
2114.1109911923704
  0
LINE
  8
_0-0_
  6
CONTINUOUS
 62
    3
 10
1212.9496091441906
 20
2154.2457503270334
 11
1221.8614689260817
 21
2145.3338905451428
  0
LINE
  8
_0-0_
  6
CONTINUOUS
 62
    3
 10
1221.8614689260817
 20
2145.3338905451428
 11
1234.4496091441906
 21
2145.3338905451428
  0
LINE
  8
_0-0_
  6
CONTINUOUS
 62
    3
 10
1206.4496091441906
 20
2134.4130613094667
 11
1234.4496091441906
 21
2145.3338905451428
  0
ENDSEC
  0
EOF
